Oops, an error
Loading. Please wait.

Thunderstruck Bass Tab

version 4
version 4
5,949 views 1 this week
no commentswrite comment
1 2 3 4 5
accurate
x 4
add to favorites
launch autoscroll
font size
0
reset
guitar tuner
Tab Pro tools
  • play this tab
  • loop segment
  • change instrument
  • show fretboard
  • metronome
×
Best way to learn
"Thunderstruck"
Autoscroll
slow
fast
+/-
esc
set tempo
stop
Contributor
Thunderstruck
AC/DC
The razor´s edge

Intro and verse
G|--------|--------|--------|--------|
D|--------|--------|--------|--------|
A|22222222|22222222|22222222|22222222|     (X8)
E|--------|--------|--------|--------|

sound of the drums...
G|--------|--------|
D|--------|--------|
A|2---0---|-0-0----|  (X4)
E|-----0--|----0---|

Youve been ..
G|--------|--------|
D|--------|--------|
A|22222222|22222222|
E|--------|--------|

G|--------|--------|--------|--------|
D|--------|--------|--------|--------|
A|22222222|22222222|22222222|22222222|     (X5)
E|--------|--------|--------|--------|

G|--------|--------|--------|--------|--------|--------|--------|--------|
D|--------|--------|--------|--------|--------|--------|--------|--------|
A|2-0-----|------0-|2-0-----|------0-|2-0-----|------0-|2-0-----|--------|
E|----0---|--------|----0---|--------|----0---|--------|----0---|--------|

Thunderstruck (chorus)
G|--------|--------|
D|--------|--------|
A|2220005-|000-----| (X4)
E|-------0|---00000|

G|--------|--------|--------|--------|
D|--------|--------|--------|--------|
A|22222222|22222222|22222222|22222222|     (X2)
E|--------|--------|--------|--------|

Solo
G|--------|--------|
D|--------|--------|
A|---2---0|0-------|      (X4)
E|0----02-|---0----|

G|--------|--------|--------|--------|
D|--------|--------|--------|--------|
A|22222222|22222222|22222222|22222222|     (X2)
E|--------|--------|--------|--------|

G|--------|--------|
D|--------|--------|
A|22222222|22222222|
E|--------|--------|

Thunderstruck (chorus)
G|--------|--------|
D|--------|--------|
A|2220005-|000-----| (X4)
E|-------0|---00000|

Yeah, its all right
G|--------|--------|
D|--------|--------|
A|2-------|--------| (X8)
E|------24|0-------|


Thunderstruck (chorus)
G|--------|--------|
D|--------|--------|
A|2220005-|000-----| (X8)
E|-------0|---00000|

final
G|--------|--------|
D|--------|--------|
A|2-------|--------|(x3)
E|--------|--------|
comments
print report bad tab
I want to post or [tab]
guest
You may want to rate the tab now too:
select rating
Please do not post tabs as comments. Select "correction" instead!