Oops, an error
Loading. Please wait.

Tnt Tab

version 4
version 4

Album

Solo

Interactive

114,090 views 18 this week
3 commentsread comments
1 2 3 4 5
worth learning
x 7
add to favorites
launch autoscroll
font size
0
reset
how to read this tab
guitar tuner
Tab Pro tools
  • play this tab
  • loop segment
  • change instrument
  • show fretboard
  • metronome
×
Best way to learn
"Tnt"
Autoscroll
slow
fast
+/-
esc
set tempo
stop
Contributor
Gtr I (E A D G B E) - 'Malcolm Young - Rhythm w/dist'
Gtr II (E A D G B E) - 'Angus Young - Lead w/dist'

Intro
  Q=126
 4/4
  Gtr I
                                   PM
  W          q  Q  E q  E   +Q   E E E E     E E
|----------|--------------|----------------------|
|----------|--------------|----------------------|
|-1--------|-1-------0--2-|-(2)------2---------1-|
|-2--------|-2-------0--2-|-(2)------2---------2-|
|-2--------|-2----------0-|-(0)------0---------2-|
|-0--------|-0-------3----|--------3---3b3.5---0-|
           |-Rhy Fig 1             end Rhy Fig 1-|

                          PM
  +q   Q  E q  E   +Q   E E E E     E E
|----------------|----------------------|
|----------------|----------------------|
|-(1)-------0--2-|-(2)------2---------1-|
|-(2)-------0--2-|-(2)------2---------2-|
|-(2)----------0-|-(0)------0---------2-|
|-(0)-------3----|--------3---3b3.5---0-|
|-Rhy Fig 1A            end Rhy Fig 1A-|


Rhy Fig 1A x2


   Verse
    $
    Rhy Fig 1A x7.5


   W           +W
|-------------|--------||
|-------------|--------||
|--(2)--------|-(2)----||
|--(2)--------|-(2)----||
|--(0)--------|-(0)----||
|-------------|--------||


   Chorus
                     1.,2.,3.      4.
                                                To Coda
                                  2/4      4/4
    Q  Q      Q  Q    W            Q.   E   +W
||------------------|-----------||--------|-------------|
||o-----------------|----------o||--------|-------------|
||--2---------1-----|-----------||-0----2-|-(2)---------|
||--2---------2-----|-----------||-0----2-|-(2)---------|
||o-0---------2-----|----------o||------0-|-(0)---------|
||-----3b3.5--0-----|-----------||-3------|-------------|
 |-Rhy Fig 2      end Rhy Fig 2-||-Rhy Fill 1

                    Interlude
  Gtr II
  a    +W            +W               +Q   +H.
|-----------------||----------------|------------------------|
|-----------------||----------------|------------------------|
|-2b4==(2)--------||-(2)------------|-(2)r=(2)---------------|
|-----------------||----------------|------------------------|
|-----------------||----------------|------------------------|
|-----------------||----------------|------------------------|
|
| Gtr I
|
|      +W
|-----------------||
|-----------------||
|------(2)--------|| w/Rhy Fig 1
|------(2)--------||
|------(0)--------||
|-----------------||
   end Rhy Fill 1-|

w/Rhy Fig 1A
                                       D.S. al Coda
  +H.         Q      W
|-----------------|----------------------||
|-----------------|----------------------||
|-(2)-------------|----------------------||
|-----------------|----------------------||
|-----------------|----------------------||
|-----------------|----------------------||


                     Guitar Solo
  &
  a    +W             a    +H      +Q    +E  S S
|------------------||------------------------2-2-|
|------------------||----------------------------|
|-2b4==(2)r--------||-2b4==(2)-----(2)r==(2)-----|
|------------------||----------------------------|
|------------------||----------------------------|
|------------------||----------------------------|
|
|       W
|------------------||
|------------------||
|------(2)---------|| w/Rhy Fig 1
|------(2)---------||
|------(0)---------||
|------------------||


   S  S S S S S S S E  Q       E
|--0------------------------------|
|-----3-2-0-----------------------|
|-----------2p0-----0-------------|
|---------------3p0---------------|
|---------------------------------|
|---------------------19\------0--|


w/Rhy Fig 1A x2.5
                ~~~~~~~~~~
  +Q    a      +Q    +Q.      S  S
|----------------------------12----|
|------15b17==(15)--(15)r-------15-|
|----------------------------------|
|----------------------------------|
|----------------------------------|
|-(0)------------------------------|


                               ~~~
   S   S  S  S  a  S  S  S  S  Q.          E
|------------------------------------------------|
|-12-----12--------------------------------------|
|-----14----14-14p12----14----12----------14b16==|
|--------------------14----14--------------------|
|------------------------------------------------|
|------------------------------------------------|


                                            ~~~~~
   +S    S  a  S  a  S  S  S  E  E  a      +Q.
|----------12----------------12--------------------|
|-------12----15-15p12-12-12----12-15b17==(15)r----|
|-(14)r--------------------------------------------|
|--------------------------------------------------|
|--------------------------------------------------|
|--------------------------------------------------|


   S   S  S  S  S  S  S  S  S  S  S      S  S  S  E
|-12--15-12----12---------------------------------------|
|-----------15----15-12----12---------------------------|
|-----------------------14----14-12--------14----12b13==|
|---------------------------------------14----14--------|
|-------------------------------------------------------|
|-------------------------------------------------------|

                                      |-w/Rhy Fill 1 (last 2 bars)
               ~~                  ~~~~~~~~~~~~~~~~~~~~~~~~
   +E    S  S  Q   Q    E  a      +E     +W            +H      +Q    E. S
|-------------------------17b19==(17)-|-(17)--------|-(17)----(17)rs=4\---||
|-------------------------------------|-------------|---------------------||
|-(12)r-------------------------------|-------------|-------------------0-||
|-------14-12-14--14\-----------------|-------------|---------------------||
|-------------------------------------|-------------|---------------------||
|-----------------------0-------------|-------------|---------------------||


   Chorus
  Rhy Fig 2 x7.5

  Rhy Fill 1 (1st 2 bars)


 Outro
  Gtr II
             ~~~~                 ~~~~                 ~~~~
  H    a     H        H    a      H        H    a      H
|-------------------|--------------------|--------------------|
|------------5------|-------------6------|-------------7------|
|------7b9==(7)r----|------8b10==(8)r----|------9b11==(9)r----|
|-------------------|--------------------|--------------------|
|-------------------|--------------------|--------------------|
|-------------------|--------------------|--------------------|
|
| Gtr I
| W                   W                    W
|-------------------|--------------------|--------------------|
|-------------------|--------------------|--------------------|
|-1-----------------|--------------------|--------------------|
|-2-----------------|-3------------------|-4------------------|
|-2-----------------|-3------------------|-4------------------|
|-0-----------------|-1------------------|-2------------------|


                ~~~~~                ~~~~~            ~~~~~
  H     a       H        Q   a      +Q    Q   a      +Q
|----------------------|-----------------------------------|
|---------------8------|-----------------------------------|
|------10b12==(10)r----|----11b13==(11)r-----12b14==(12)r--|
|----------------------|-----------------------------------|
|----------------------|-----------------------------------|
|----------------------|-----------------------------------|
|
| W                      H                H
|----------------------|-----------------------------------|
|----------------------|-----------------------------------|
|----------------------|-----------------------------------|
|-5--------------------|-6----------------7----------------|
|-5--------------------|-6----------------7----------------|
|-3--------------------|-4----------------5----------------|


              ~~~~~            ~~~~~
  Q   a      +Q    Q   a      +Q
|------------------------------------|
|------------------------------------|
|----13b15==(13)r-----14b16==(14)r---|
|------------------------------------|
|------------------------------------|
|------------------------------------|
|
| H                H
|------------------------------------|
|------------------------------------|
|------------------------------------|
|-8----------------9-----------------|
|-8----------------9-----------------|
|-6----------------7-----------------|


   E  a       Q       a       E   +E    a       Q       a       E
|------------------------------------------------------------------|
|------------13--------------14--(14)----------15--------------16--|
|----15b17==(15)r----16b18==(16)-(16)r-17b19==(17)r----18b20==(18)-|
|------------------------------------------------------------------|
|------------------------------------------------------------------|
|------------------------------------------------------------------|
|
|  Q               Q               Q                 Q
|------------------------------------------------------------------|
|------------------------------------------------------------------|
|------------------------------------------------------------------|
|-10--------------11--------------12----------------13-------------|
|-10--------------11--------------12----------------13-------------|
|--8---------------9--------------10----------------11-------------|


   +Q     a       Q     a       Q     a       Q
|--------------------------------------------------|
|-(16)-----------17------------18------------18----|
|-(18)r--19b21==(19)r--20b22==(20)r--20b22==(20)r--|
|--------------------------------------------------|
|--------------------------------------------------|
|--------------------------------------------------|
|
|   Q             Q             Q             Q
|--------------------------------------------------|
|--------------------------------------------------|
|--------------------------------------------------|
|--14------------15------------16------------17----|
|--14------------15------------16------------17----|
|--12------------13------------14------------15----|


                                   Freely
                       TP            TP
   E  a      +Q.       Q   Q         W              W          W
|---------------------------------|---------------:----------:------------*|
|---------------------20--22pb23--|-22pb24--------:----------:------------*|
|----22b23==(22)r-----------------|---------------:----------:------------*|
|---------------------------------|---------------:----------:------------*|
|---------------------------------|---------------:----------:------------*|
|---------------------------------|---------------:----------:------------*|
|
|                                    TP
|  Q               Q   Q   Q         W              W          Q  Q  H
|---------------------------------|---------------:----------:------------*|
|---------------------------------|---------------:----------:------------*|
|---------------------------------|---------------:----------:-1----------*|
|-18--------------19--20--21------|-21------------:----------:-2----------*|
|-18--------------19--20--21------|-21------------:----------:-2----------*|
|-16--------------17--18--19------|-19------------:----------:-0----------*|
comments
print report bad tab
3 comments total.
-1 reply
TheMutts wrote on December 30 2004, 12:00 am

you stupid mother ***er.. why dont you go look at http://mikesguitarsite.co.uk... oh wait you already did seeing as how you just copied and pasted their tabs on here.. dumb ***ing stupid bitch!!

-1 reply
TheMutts wrote on December 30 2004, 12:00 am

you stupid mother ***er.. why dont you go look at http://mikesguitarsite.co.uk... oh wait you already did seeing as how you just copied and pasted their tabs on here.. dumb ***ing stupid bitch!!













































you stupid mother ***er.. why dont you go look at http://mikesguitarsite.co.uk... oh wait you already did seeing as how you just copied and pasted their tabs on here.. dumb ***ing stupid bitch!!

















you stupid mother ***er.. why dont you go look at http://mikesguitarsite.co.uk... oh wait you already did seeing as how you just copied and pasted their tabs on here.. dumb ***ing stupid bitch!!

you stupid mother ***er.. why dont you go look at http://mikesguitarsite.co.uk... oh wait you already did seeing as how you just copied and pasted their tabs on here.. dumb ***ing stupid bitch!!

you stupid mother ***er.. why dont you go look at http://mikesguitarsite.co.uk... oh wait you already did seeing as how you just copied and pasted their tabs on here.. dumb ***ing stupid bitch!!




you stupid mother ***er.. why dont you go look at http://mikesguitarsite.co.uk... oh wait you already did seeing as how you just copied and pasted their tabs on here.. dumb ***ing stupid bitch!!




you stupid mother ***er.. why dont you go look at http://mikesguitarsite.co.uk... oh wait you already did seeing as how you just copied and pasted their tabs on here.. dumb ***ing stupid bitch!!

0 reply
karateguy29 wrote on June 1 2005, 12:00 am

hey, calm down dude

I want to post or [tab]
guest
You may want to rate the tab now too:
select rating
Please do not post tabs as comments. Select "correction" instead!