Oops, an error
Loading. Please wait.

Tnt Tab

version 6
version 6

Album

Solo

Interactive

279,596 views 1,377 this week
10 commentsread comments
1 2 3 4 5
excellent!
x 23
add to favorites
launch autoscroll
font size
0
reset
how to read this tab
guitar tuner
Tab Pro tools
  • play this tab
  • loop segment
  • change instrument
  • show fretboard
  • metronome
×
Best way to learn
"Tnt"
Autoscroll
slow
fast
+/-
esc
set tempo
stop
Contributor
Difficulty
intermediate
There are two Version of T.N.T. The original from 1976 on the Album "High Voltage" 
and the remake from 2010 on the Album "Iron Man 2". Unfortunately there are two different Tunings: 

Album "High Voltage" 1976 - Tuning Standard - E A D G B e

Album "Iron Man 2" 2010 - Tuning half Step Down - Eb Ab Db Gb Bb eb

Intro

   |---------------------|
   |---------------------|
   |---------------------|
   |-2~~-----------------|
   |-2~~-----------------|
   |-0~~-----------------|



Verse (0:08 - 0:54)
 Guitar Angus & Malcom

   |---|--------------------------|
   |---|--------------------------|
   |---|--------------------------|
   |---|--------2-------2---------|   repeat 11x 
   |-2-|--x-x---0-------0----2----|
   |-0-|--x-x-3-------3---3--0----|

   |----------------|
   |----------------|
   |----------------|
   |------2---------|
   |------0---------|
   |---3------------|



Chorus (0:55 - 1:13)
 Guitar Angus & Malcom

   |----------------|
   |----------------|
   |----------------|
   |---2------------|   repeat 4x
   |---0-----2------|
   |------3--0------|

   |----------------|
   |----------------|
   |----------------|
   |------2---------|
   |------0---------|
   |---3------------|



Verse (1:14 - 1:54)
 Guitar Angus & Malcom

   |-------|--------------------------|
   |-------|--------------------------|
   |-2b----|--------------------------|
   |-------|--------2-------2---------|   repeat 9x 
   |-----2-|--x-x---0-------0----2----|
   |-----0-|--x-x-3-------3---3--0----|

   |----------------|
   |----------------|
   |----------------|
   |------2---------|
   |------0---------|
   |---3------------|



Chorus (1:55 - 2:08)
 Guitar Angus & Malcom

   |----------------|
   |----------------|
   |----------------|
   |---2------------|   repeat 4x
   |---0-----2------|
   |------3--0------|

   |----------------|
   |----------------|
   |----------------|
   |------2---------|
   |------0---------|
   |---3------------|


Solo (2:09 - 2:28)
 Guitar Angus 

   |----------3-2-0-------------------|
   |-----------------3-2-0------------|
   |-2b--2b----------------2-0--------|
   |---------------------------5/0----|
   |----------------------------------|
   |----------------------------------|

   |--------------------------------------------|
   |--15b 15p12----12---------------------------|
   |------------14----14--12------14------12----|
   |--------------------------14------14--------|
   |--------------------------------------------|
   |--------------------------------------------|

   |------------------12---------------12------------|
   |----------------12-----15p12-12-12----12---15b---|
   |---14b-----14------------------------------------|
   |-------------------------------------------------|
   |-------------------------------------------------|
   |-------------------------------------------------|

   |--12-15-12----12------------------------------------------------|
   |-----------15-----15-12----12-----------------------------------|
   |------------------------14----14--12-----14----12b--------------|
   |--------------------------------------14----14------------------|
   |----------------------------------------------------14-12-12-14\|
   |----------------------------------------------------------------|

   |--17b---17/0---------|
   |---------------------|
   |---------------------|
   |---------------------|
   |---------------------|
   |---------------------|


 Guitar Malcom 

   |---|--------------------------|
   |---|--------------------------|
   |---|--------------------------|
   |---|--------2-------2---------|   repeat 3x 
   |-2-|--x-x---0-------0----2----|
   |-0-|--x-x-3-------3---3--0----|

   |----------------|
   |----------------|
   |----------------|
   |------2---------|
   |------0---------|
   |---3------------|



Breakdown (2:28 - 2:59)
 Guitar Angus & Malcom

   |----------------|
   |----------------|
   |----------------|
   |---2------------|   repeat 8x
   |---0-----2------|
   |------3--0------|

   |----------------|
   |----------------|
   |----------------|
   |------2---------|
   |------0---------|
   |---3------------|



End (3:00 - 3:31)
 Guitar Angus

   |----------------------------|
   |-------------19b-22b-22b----|
   |---7b....22b----------------|
   |----------------------------|
   |----------------------------|
   |----------------------------|

 Start with the first bending on the 7th fret until you are at fret 22.



 Guitar Malcom

   |------------------|
   |------------------|
   |------------------|
   |--2.....21--------|
   |--2.....21--------|
   |--0.....19--------|

 Start with the first shown powerchord and slide one fret up until Fret 19
comments
print report bad tab
10 comments total. Showing first comments.
0 reply
tonello wrote on August 7 2012, 12:53 am

The tuning, for the studio version at least, is Half step down, not standard.

+4 reply
-Sebstar- wrote on April 7 2013, 05:49 am

I dont think so. Try it out, it will sound correct ;)

+1 reply
poulips wrote on June 5 2013, 08:55 pm

I also think the album version is tuned to Eb

I want to post or [tab]
guest
You may want to rate the tab now too:
select rating
Please do not post tabs as comments. Select "correction" instead!