Oops, an error
Loading. Please wait.

Touch Too Much tab

version 3
version 3

Whole song

Interactive

by AC/DC
5,300 views 3 this week
1 commentread comment
1 2 3 4 5
1 last vote to show rating
add to favorites
×
Save as Personal and add changes to this tab that will be seen only by you. Learn more ›
×
You can save this tab as Personal to edit and correct it or add notes. All changes will be seen only by you. Learn more »
launch autoscroll
font size
0
reset
how to read this tab
guitar tuner
backing track
0:00
0:00
edit
Autoscroll
slow
fast
+/-
esc
set tempo
stop
Author
AC/DC - Touch Too Much Bonfire Volts Version

Tuning: Standart
Mail: degot@bk.ru

This rare composition is from album "Bonfire Volts" 1997, and i find it even 
better than "official" version;
Sorry here is no solo, but i made this tab not for solo but for its great riffs, so here it is!

x - muted note
h - hammer-on

Intro
e|------------------------2-------------------------3-2-----|   |----|
B|------------------------3-------------------------3-3-----|   |----|
G|---0h2--0h2--0h2--2-2-2-2------0h2--0h2--0h2--2-2-0-2-----|   |--2-|
D|---0h2--0h2--0h2--2-2-2-0------0h2--0h2--0h2--2-2-0-0-----|   |--2-|
A|---0-0--0-0--0-0--0-0-0--------0-0--0-0--0-0--0-0-x-------|   |--0-|
E|--------------------------------------------------3-------|x4 |----|


Main riff
e|-------------------------22-------------------------------|
B|-------------------------33-------------------------------|
G|---2--2--x2------------2-22-------------------------------|
D|---2--2--x2------------2-00-------------------------------|
A|---0--0--x0(let_ring)--0----------------------------------|
E|----------------------------------------------------------|x12

-on 12-th time play
e|----------------------------------------------------------|
B|----------------------------------------------------------|
G|---2--2--x2------------2222-------------------------------|
D|---2--2--x2------------2222-------------------------------|
A|---0--0--x0(let_ring)--0000-------------------------------|
E|----------------------------------------------------------|


Pre-chorus
e|---3---3---2------------3---3-----------------------------|
B|---3---3---3--3---------3---3-----------------------------|
G|---0---0---2--2-2-0-2---0---0-----------------------------|
D|---0---0---0--0-2-0-2---0---0---2--2--2--2-2--------------|
A|---x---x--------0-0-0---x---x---2--2--2--2-2--------------|
E|---3---3----------3-----3---3---0--0--0--0-0--------------|


Chorus
e|------------------22-3-2-------|
B|------------------33-3-3-------|
G|---0h2--0h2--0h2--22-0-2-------|
D|---0h2--0h2--0h2--00-0-0-------|
A|---0-0--0-0--0-0-----x---------|
E|---------------------3---------|x4

Then main riff(x8),
then pre-chorus and chorus(x8),
then comes solo, sorry no solo :(


As solo background:
play pre-chorus' second part, then chorus x8 times, then next combinations few times each

e|--3---2-3-2-3----------3--2-------------------3--2-------|
B|--3---3-3-3-3----------3--3------------------3---3-------|
G|--0---2-0-2-0--2-------0--2--0h2--------2---2----2-------|
D|--0---0-0-0-0--2-------0--0--0h2--------2--0-----0-------|
A|--x-----x---x--0-------x-----0-0--------0----------------|
E|--3-----3---3-----...--3-----------...-------------...---|

Then comes pre-chorus' second part and Chorus a lot of times (m.b 20) softer and softer...

Touch Too Much rocks!
Suggest correction
Creating personal tab
Creating personal tab
You can edit any tab online and save it as your Personal.

You can edit, replace or remove any tab part or add personal notes – all changes will be seen only by you.

Personal tabs can be accessed anytime from any device, even offline.
Learn more »
Give kudos to tab author, rate the tab!
1 2 3 4 5
comments
print report bad tab
1 comment total.
0 reply
TheDanny385SG 10 Oct 28, 2010 06:04 PM

thanks for posting the tab! i've been looking for the tab of this version forever
:D

guest
You may want to rate the tab now too:
select rating
Wanna post a correction for this tab? Suggest correction