Oops, an error
Loading. Please wait.
We have an official Twos Up tab made by UG professional guitarists. Check out the tab »
×
by AC/DC
175 views 1 this week
no commentswrite comment
1 2 3 4 5
3 more votes to show rating
add to favorites
×
Save as Personal and add changes to this tab that will be seen only by you. Learn more ›
×
You can save this tab as Personal to edit and correct it or add notes. All changes will be seen only by you. Learn more »
launch autoscroll
font size
0
reset
how to read this tab
guitar tuner
edit
Autoscroll
slow
fast
+/-
esc
set tempo
stop
Author
Difficulty
-------------------------------------------------------------------------------
                             Twos Up - AC/DC
-------------------------------------------------------------------------------
Tabbed by: jothunder

Tuning: Standard

Disclaimer: This tab does not contain the guitar solo!

(A) - Angus (Lead)

(M) - Malcolm (Rythm)

-------------------------------------------------------------------------------

INTRO

e|-----------------------------------------------------------------| (A)
B|-----4-----3-----4-----4-----3-------4-----3-----4-----4-----3---|
G|-5---3-----3-----3-----3-----3---3---3-----3-----3-----3-----3---|
D|-5-------------------------------3-------------------------------|
A|-3-------------------------------1-------------------------------|
E|-----------------------------------------------------------------|
 |                                                                 |
e|-----------------------------------------------------------------| (M)
B|-----------------------------------------------------------------|
G|-5-------------------------------3-------------------------------|
D|-5-------------------------------3-------------------------------|
A|-3-------------------------------1-------------------------------|
E|-----------------------------------------------------------------|


e|-----------------------------------------------------------------| (A)
B|-----4-----3---------4-----3---------4-----3---------4-----3-----|
G|-----3-----3---------3-----3---------3-----3---------3-----3-----|
D|-3---------------5---------------6---------------8---------------|
A|-3---------------5---------------6---------------8---------------|
E|-1---------------3---------------4---------------6---------------|
 |                                                                 |
e|-----------------------------------------------------------------| (M)
B|-----------------------------------------------------------------|
G|-----------------------------------------------------------------|
D|-3---------------5---------------6---------------8---------------|
A|-3---------------5---------------6---------------8---------------|
E|-1---------------3---------------4---------------6---------------|


e|-8-8-8-8-8-8-8-8-8-8-8-6-6-6-5-5-| (A)
B|-8-8-8-8-8-8-8-8-8-8-8-6-6-6-6-6-|
G|-5-5-5-5-5-5-5-5-5-5-5-5-5-5-5-5-| Play
D|---------------------------------|  2x
A|---------------------------------|
E|---------------------------------|
 |                                 |_______________________________
e|-----------------------------------------------------------------| (M)
B|-----------------------------------------------------------------|
G|-5---------------------------------------------------------------|
D|-5---------------------------------------------------------------|
A|-3---------------------------------------------------------------|
E|-----------------------------------------------------------------|


e|-8-8-8-8-8-8-8-8-8-8-8-6-6-6-5-5-| (A)
B|-8-8-8-8-8-8-8-8-8-8-8-6-6-6-6-6-|
G|-5-5-5-5-5-5-5-5-5-5-5-5-5-5-5-5-|
D|---------------------------------|
A|---------------------------------|
E|---------------------------------|
 |                                 |
e|---------------------------------| (M)
B|---------------------------------|
G|-5-5-5-5-5-5-5-5-5-5-5-5-5-5-5-5-|
D|-5-5-5-5-5-5-5-5-5-5-5-5-5-5-5-5-|
A|-3-3-3-3-3-3-3-3-3-3-3-3-3-3-3-3-|
E|---------------------------------|


e|-----------------------------------------| (A)
B|-----4-----4-----4-----4-------3---------|
G|-----------------------------------------|
D|---5-----5-----5-----5-------5-----------|
A|-3-----3-----3-----3-------5-------------|
E|-------------------------3---------------|
 |                                         |
e|-----------------------------------------| (M)
B|-------------------------------3---------|
G|-----5-----------------------------------|
D|---5-------6-----5-----3-----5-----------|
A|-3-------6-----5-----3-----5-------------|
E|-------4-----3-----1-----3---------------|


e|-----------------------------------------------------------------| (A)
B|-----4-----3-----4-----4-----3-------4-----3-----4-----4-----3---|
G|-5---3-----3-----3-----3-----3---3---3-----3-----3-----3-----3---|
D|-5-------------------------------3-------------------------------|
A|-3-------------------------------1-------------------------------|
E|-----------------------------------------------------------------|
 |                                                                 |
e|-----------------------------------------------------------------| (M)
B|-----------------------------------------------------------------|
G|-5---------5-----5-----5---5-5-5-3---------3-----3-----3---3-3-3-|
D|-5---------5-----5-----5---5-5-5-3---------3-----3-----3---3-3-3-|
A|-3-------3-3---3-3-----3---3-3-3-1-------1-1---1-1-----1---1-1-1-|
E|-----------------------------------------------------------------|


e|-----------------------------------------------------------------| (A)
B|-----4-----3---------4-----3---------4-----3---------4-----3-----|
G|-----3-----3---------3-----3---------3-----3---------3-----3-----|
D|-3---------------5---------------6---------------8---------------|
A|-3---------------5---------------6---------------8---------------|
E|-1---------------3---------------4---------------6---------------|
 |                                                                 |
e|-----------------------------------------------------------------| (M)
B|-----------------------------------------------------------------|
G|-----------------------------------------------------------------|
D|-3---------3-----5---------5-----6---------6-----8---------8-----|
A|-3---------3-----5---------5-----6---------6-----8---------8-----|
E|-1-------1-1-----3-------3-3-----4-------4-4-----6-------6-6-----|


e|---------------------------------| (BOTH)
B|---------------------------------|
G|-5-5-5-5-5-5-5-5-5-5-5-3-3-3-2-2-| Play
D|-5-5-5-5-5-5-5-5-5-5-5-3-3-3-3-3-|  2x
A|-3-3-3-3-3-3-3-3-3-3-3-1-1-1-3-3-|
E|---------------------------------|


VERSE

e|-----------------------------------------------------------------| (A)
B|-----------------------------------------------------------------|
G|-5\--x---------------------------------------------8-x---x-8-x---|
D|-5\--x---x-3-x-5-x---x---x-5-x-6-x---x---x-6-x-8-x-8-x---x-8-x---|
A|-3\--x---x-3-x-5-x---x---x-5-x-6-x---x---x-6-x-8-x-6-x---x-6-x---|
E|---------x-1-x-3-x---x---x-3-x-4-x---x---x-4-x-6-x---------------|
 |                                                                 |
e|-----------------------------------------------------------------| (M)
B|-----------------------------------------------------------------|
G|-5---x---------------------------------------------8-x---x-8-x---|
D|-5---x---x-3-x-5-x---x---x-5-x-6-x---x---x-6-x-8-x-8-x---x-8-x---|
A|-3---x---x-3-x-5-x---x---x-5-x-6-x---x---x-6-x-8-x-6-x---x-6-x---|
E|---------x-1-x-3-x---x---x-3-x-4-x---x---x-4-x-6-x---------------|


e|-----------------------------------------------------------------| (A)
B|-----------------------------------------------------------------|
G|-5\--x-----------------------------------------------------------|
D|-5\--x---x-3-x-5-x---x---x-5-x-6-x---x---x-6-x-8-x---------------|
A|-3\--x---x-3-x-5-x---x---x-5-x-6-x---x---x-6-x-8-x---------8-6\--|
E|---------x-1-x-3-x---x---x-3-x-4-x---x---x-4-x-6-x-6-8-6-8-------|
 |                                                                 |
e|-----------------------------------------------------------------| (M)
B|-----------------------------------------------------------------|
G|-5---x-----------------------------------------------------------|
D|-5---x---x-3-x-5-x---x---x-5-x-6-x---x---x-6-x-8-x---------8-----|
A|-3---x---x-3-x-5-x---x---x-5-x-6-x---x---x-6-x-8-x---------8-----|
E|---------x-1-x-3-x---x---x-3-x-4-x---x---x-4-x-6-x-6-8-6-8-6-----|


e|-----------------------------------------------------------------| (A)
B|-----------------------------------------------------------------|
G|-5\--x---------------------------------------------8-x---x-8-x---|
D|-5\--x---x-3-x-5-x---x---x-5-x-6-x---x---x-6-x-8-x-8-x---x-8-x---|
A|-3\--x---x-3-x-5-x---x---x-5-x-6-x---x---x-6-x-8-x-6-x---x-6-x---|
E|---------x-1-x-3-x---x---x-3-x-4-x---x---x-4-x-6-x---------------|
 |                                                                 |
e|-----------------------------------------------------------------| (M)
B|-----------------------------------------------------------------|
G|-5---x---------------------------------------------8-x---x-8-x---|
D|-5---x---x-3-x-5-x---x---x-5-x-6-x---x---x-6-x-8-x-8-x---x-8-x---|
A|-3---x---x-3-x-5-x---x---x-5-x-6-x---x---x-6-x-8-x-6-x---x-6-x---|
E|---------x-1-x-3-x---x---x-3-x-4-x---x---x-4-x-6-x---------------|


e|-------------------------------------------------------------------------------| (A)
B|-------------------------------------------------------------------------------|
G|-5\--x---------------------------------------------8-x---x-8-x---x-8-x---x-8-x-|
D|-5\--x---x-3-x-5-x---x---x-5-x-6-x---x---x-6-x-8-x-8-x---x-8-x---x-8-x---x-8-x-|
A|-3\--x---x-3-x-5-x---x---x-5-x-6-x---x---x-6-x-8-x-6-x---x-6-x---x-6-x---x-6-x-|
E|---------x-1-x-3-x---x---x-3-x-4-x---x---x-4-x-6-x-----------------------------|
 |                                                                               |
e|-------------------------------------------------------------------------------| (M)
B|-------------------------------------------------------------------------------|
G|-5---x---------------------------------------------8-x---x-8-x---x-8-x---x-8-x-|
D|-5---x---x-3-x-5-x---x---x-5-x-6-x---x---x-6-x-8-x-8-x---x-8-x---x-8-x---x-8-x-|
A|-3---x---x-3-x-5-x---x---x-5-x-6-x---x---x-6-x-8-x-6-x---x-6-x---x-6-x---x-6-x-|
E|---------x-1-x-3-x---x---x-3-x-4-x---x---x-4-x-6-x-----------------------------|


PRE-CHORUS

e|-----------------------------------------------------------------| (A)
B|-----4-----3-----4-----4-----3-------4-----3-----4-----4-----3---|
G|-----3-----3-----3-----3-----3-------3-----3-----3-----3-----3---|
D|-3-------------------------------5-------------------------------|
A|-3-------------------------------5-------------------------------|
E|-1-------------------------------3-------------------------------|
 |                                                                 |
e|-----------------------------------------------------------------| (M)
B|-----------------------------------------------------------------|
G|-----------------------------------------------------------------|
D|-3---------3-----3-----3---3-3-3-5---------5-----5-----5---5-5-5-|
A|-3---------3-----3-----3---3-3-3-5---------5-----5-----5---5-5-5-|
E|-1-------1-1---1-1-----1---1-1-1-3-------3-3---3-3-----3---3-3-3-|


CHORUS

e|-----------------------------------------------------------------| (BOTH)
B|-----4-----3-----4-----4-----3-------4-----3-----4-----4-----3---|
G|-5---3-----3-----3-----3-----3---3---3-----3-----3-----3-----3---|
D|-5-------------------------------3-------------------------------|
A|-3-------------------------------1-------------------------------|
E|-----------------------------------------------------------------|


e|-----------------------------------------------------------------| (BOTH)
B|-----4-----3---------4-----3---------4-----3---------4-----3-----|
G|-----3-----3---------3-----3---------3-----3---------3-----3-----|
D|-3---------------5---------------6---------------8---------------|
A|-3---------------5---------------6---------------8---------------|
E|-1---------------3---------------4---------------6---------------|


POST-CHORUS

e|---------------------------------| (BOTH)
B|---------------------------------|
G|-5-5-5-5-5-5-5-5-5-5-5-3-3-3-2-2-| Play
D|-5-5-5-5-5-5-5-5-5-5-5-3-3-3-3-3-|  2x
A|-3-3-3-3-3-3-3-3-3-3-3-1-1-1-3-3-|
E|---------------------------------|


VERSE

e|-----------------------------------------------------------------| (A)
B|-----------------------------------------------------------------|
G|-5\--x---------------------------------------------8-x---x-8-x---|
D|-5\--x---x-3-x-5-x---x---x-5-x-6-x---x---x-6-x-8-x-8-x---x-8-x---|
A|-3\--x---x-3-x-5-x---x---x-5-x-6-x---x---x-6-x-8-x-6-x---x-6-x---|
E|---------x-1-x-3-x---x---x-3-x-4-x---x---x-4-x-6-x---------------|
 |                                                                 |
e|-----------------------------------------------------------------| (M)
B|-----------------------------------------------------------------|
G|-5---x---------------------------------------------8-x---x-8-x---|
D|-5---x---x-3-x-5-x---x---x-5-x-6-x---x---x-6-x-8-x-8-x---x-8-x---|
A|-3---x---x-3-x-5-x---x---x-5-x-6-x---x---x-6-x-8-x-6-x---x-6-x---|
E|---------x-1-x-3-x---x---x-3-x-4-x---x---x-4-x-6-x---------------|


e|-----------------------------------------------------------------| (A)
B|-----------------------------------------------------------------|
G|-5\--x-----------------------------------------------------------|
D|-5\--x---x-3-x-5-x---x---x-5-x-6-x---x---x-6-x-8-x---------------|
A|-3\--x---x-3-x-5-x---x---x-5-x-6-x---x---x-6-x-8-x---------8-6\--|
E|---------x-1-x-3-x---x---x-3-x-4-x---x---x-4-x-6-x-6-8-6-8-------|
 |                                                                 |
e|-----------------------------------------------------------------| (M)
B|-----------------------------------------------------------------|
G|-5---x-----------------------------------------------------------|
D|-5---x---x-3-x-5-x---x---x-5-x-6-x---x---x-6-x-8-x---------8-----|
A|-3---x---x-3-x-5-x---x---x-5-x-6-x---x---x-6-x-8-x---------8-----|
E|---------x-1-x-3-x---x---x-3-x-4-x---x---x-4-x-6-x-6-8-6-8-6-----|


e|-----------------------------------------------------------------| (A)
B|-----------------------------------------------------------------|
G|-5\--x---------------------------------------------8-x---x-8-x---|
D|-5\--x---x-3-x-5-x---x---x-5-x-6-x---x---x-6-x-8-x-8-x---x-8-x---|
A|-3\--x---x-3-x-5-x---x---x-5-x-6-x---x---x-6-x-8-x-6-x---x-6-x---|
E|---------x-1-x-3-x---x---x-3-x-4-x---x---x-4-x-6-x---------------|
 |                                                                 |
e|-----------------------------------------------------------------| (M)
B|-----------------------------------------------------------------|
G|-5---x---------------------------------------------8-x---x-8-x---|
D|-5---x---x-3-x-5-x---x---x-5-x-6-x---x---x-6-x-8-x-8-x---x-8-x---|
A|-3---x---x-3-x-5-x---x---x-5-x-6-x---x---x-6-x-8-x-6-x---x-6-x---|
E|---------x-1-x-3-x---x---x-3-x-4-x---x---x-4-x-6-x---------------|


e|-------------------------------------------------------------------------------| (A)
B|-------------------------------------------------------------------------------|
G|-5\--x---------------------------------------------8-x---x-8-x---x-8-x---x-8-x-|
D|-5\--x---x-3-x-5-x---x---x-5-x-6-x---x---x-6-x-8-x-8-x---x-8-x---x-8-x---x-8-x-|
A|-3\--x---x-3-x-5-x---x---x-5-x-6-x---x---x-6-x-8-x-6-x---x-6-x---x-6-x---x-6-x-|
E|---------x-1-x-3-x---x---x-3-x-4-x---x---x-4-x-6-x-----------------------------|
 |                                                                               |
e|-------------------------------------------------------------------------------| (M)
B|-------------------------------------------------------------------------------|
G|-5---x---------------------------------------------8-x---x-8-x---x-8-x---x-8-x-|
D|-5---x---x-3-x-5-x---x---x-5-x-6-x---x---x-6-x-8-x-8-x---x-8-x---x-8-x---x-8-x-|
A|-3---x---x-3-x-5-x---x---x-5-x-6-x---x---x-6-x-8-x-6-x---x-6-x---x-6-x---x-6-x-|
E|---------x-1-x-3-x---x---x-3-x-4-x---x---x-4-x-6-x-----------------------------|


PRE-CHORUS

e|-----------------------------------------------------------------| (A)
B|-----4-----3-----4-----4-----3-------4-----3-----4-----4-----3---|
G|-----3-----3-----3-----3-----3-------3-----3-----3-----3-----3---|
D|-3-------------------------------5-------------------------------|
A|-3-------------------------------5-------------------------------|
E|-1-------------------------------3-------------------------------|
 |                                                                 |
e|-----------------------------------------------------------------| (M)
B|-----------------------------------------------------------------|
G|-----------------------------------------------------------------|
D|-3---------3-----3-----3---3-3-3-5---------5-----5-----5---5-5-5-|
A|-3---------3-----3-----3---3-3-3-5---------5-----5-----5---5-5-5-|
E|-1-------1-1---1-1-----1---1-1-1-3-------3-3---3-3-----3---3-3-3-|


CHORUS

e|-----------------------------------------------------------------| (BOTH)
B|-----4-----3-----4-----4-----3-------4-----3-----4-----4-----3---|
G|-5---3-----3-----3-----3-----3---3---3-----3-----3-----3-----3---|
D|-5-------------------------------3-------------------------------|
A|-3-------------------------------1-------------------------------|
E|-----------------------------------------------------------------|


e|-----------------------------------------------------------------| (BOTH)
B|-----4-----3---------4-----3---------4-----3---------4-----3-----|
G|-----3-----3---------3-----3---------3-----3---------3-----3-----|
D|-3---------------5---------------6---------------8---------------|
A|-3---------------5---------------6---------------8---------------|
E|-1---------------3---------------4---------------6---------------|


INTERLUDE (while Angus plays his solo)

e|---------------------------------------------------------| (A)
B|-----4-----4-----4-----4-------3-------------------------|
G|---------------------------------------------------------|
D|---5-----5-----5-----5-------5-----------5-5-5-5-5-5-5-5-|
A|-3-----3-----3-----3-------5-------------5-5-5-5-5-5-5-5-|
E|-------------------------3---------------3-3-3-3-3-3-3-3-|
 |                                                         |
e|---------------------------------------------------------| (M)
B|-------------------------------3-------------------------|
G|-----5---------------------------------------------------|
D|---5-------6-----5-----3-----5-----------5-5-5-5-5-5-5-5-|
A|-3-------6-----5-----3-----5-------------5-5-5-5-5-5-5-5-|
E|-------4-----3-----1-----3---------------3-3-3-3-3-3-3-3-|


e|----------------------------------| (A)
B|----------------------------------|
G|-10-8-10\--x-8-x-10\--x-----------|
D|-10-8-10\--x-8-x-10\--x-----------|
A|--8-6--8\--x-6-x--8\--x-----------|
E|----------------------------------|
 |                                  |
e|----------------------------------| (M)
B|----------------------------------|
G|-10-8-10-x-x-8-x-10-x-------------|
D|-10-8-10-x-x-8-x-10-x-----3-3-3-x-|
A|--8-6--8-x-x-6-x--8-x-----3-3-3-x-|
E|--------------------------1-1-1-x-|


e|----------------------------------| (A)
B|----------------------------------|
G|-10-8-10-x-x-8-x-10\--x-----------|
D|-10-8-10-x-x-8-x-10\--x-----------|
A|--8-6--8-x-x-6-x--8\--x-----------|
E|----------------------------------|
 |                                  |
e|----------------------------------| (M)
B|----------------------------------|
G|-10-8-10-x-x-8-x-10-x-------------|
D|-10-8-10-x-x-8-x-10-x-----3-3-3-x-|
A|--8-6--8-x-x-6-x--8-x-----3-3-3-x-|
E|--------------------------1-1-1-x-|


e|------------------------------------| (A)
B|------------------------------------|
G|-12-10-12\--x-10-x-12\--x-----------|
D|-12-10-12\--x-10-x-12\--x-----------|
A|-10--8-10\--x--8-x-10\--x-----------|
E|------------------------------------|
 |                                    |
e|------------------------------------| (M)
B|------------------------------------|
G|-12-10-12-x-x-10-x-12-x-------------|
D|-12-10-12-x-x-10-x-12-x-----5-5-5-x-|
A|-10--8-10-x-x--8-x-10-x-----5-5-5-x-|
E|----------------------------3-3-3-x-|


e|------------------------------------| (A)
B|------------------------------------|
G|-12-10-12-x-x-10-x-12\--x-----------|
D|-12-10-12-x-x-10-x-12\--x-----------|
A|-10--8-10-x-x--8-x-10\--x-----------|
E|------------------------------------|
 |                                    |
e|------------------------------------| (M)
B|------------------------------------|
G|-12-10-12-x-x-10-x-12-x-------------|
D|-12-10-12-x-x-10-x-12-x-----5-5-5-x-|
A|-10--8-10-x-x--8-x-10-x-----5-5-5-x-|
E|----------------------------3-3-3-x-|


e|----------------------------------| (A)
B|----------------------------------|
G|-10-8-10-x-x-8-x-10\--x-----------|
D|-10-8-10-x-x-8-x-10\--x-----------|
A|--8-6--8-x-x-6-x--8\--x-----------|
E|----------------------------------|
 |                                  |
e|----------------------------------| (M)
B|----------------------------------|
G|-10-8-10-x-x-8-x-10-x-------------|
D|-10-8-10-x-x-8-x-10-x-----3-3-3-x-|
A|--8-6--8-x-x-6-x--8-x-----3-3-3-x-|
E|--------------------------1-1-1-x-|


e|-----------------------------------------------------| (BOTH)
B|-----------------------------------------------------|
G|-12-10-12-x-x-10-x-----------------------------------|
D|-12-10-12-x-x-10-x-8---8-8-8-8-8-8-8-8-8-8-8-8-8-8-8-|
A|-10--8-10-x-x--8-x-8---8-8-8-8-8-8-8-8-8-8-8-8-8-8-8-|
E|-------------------6---6-6-6-6-6-6-6-6-6-6-6-6-6-6-6-|


e|-----------------------------------------------------------------| (BOTH)
B|-----4-----3-----4-----4-----3-------4-----3-----4-----4-----3---|
G|-5---3-----3-----3-----3-----3---3---3-----3-----3-----3-----3---|
D|-5-------------------------------3-------------------------------|
A|-3-------------------------------1-------------------------------|
E|-----------------------------------------------------------------|


e|-----------------------------------------------------------------| (BOTH)
B|-----4-----3---------4-----3---------4-----3---------4-----3-----|
G|-----3-----3---------3-----3---------3-----3---------3-----3-----|
D|-3---------------5---------------6---------------8---------------|
A|-3---------------5---------------6---------------8---------------|
E|-1---------------3---------------4---------------6---------------|

e|-----------------------------------------------------------------| (BOTH)
B|-----------------------------------------------------------------|
G|-5-x-------------------------------------------------------------|
D|-5-x-------3-x-5-x---------5-x-6-x---------6-x-8-----------------|
A|-3-x-------3-x-5-x---------5-x-6-x---------6-x-8-----------------|
E|-----------1-x-3-x---------3-x-4-x---------4-x-6-----------------|


FINAL CHORUS

e|-----------------------------------------------------------------| (A)
B|-----4-----3-----4-----4-----3-------4-----3-----4-----4-----3---|
G|-5---3-----3-----3-----3-----3---3---3-----3-----3-----3-----3---|
D|-5-------------------------------3-------------------------------|
A|-3-------------------------------1-------------------------------|
E|-----------------------------------------------------------------|
 |                                                                 |
e|-----------------------------------------------------------------| (M)
B|-----------------------------------------------------------------|
G|-5-------------------------------3-------------------------------|
D|-5-------------------------------3-------------------------------|
A|-3-------------------------------1-------------------------------|
E|-----------------------------------------------------------------|


e|-----------------------------------------------------------------| (A)
B|-----4-----3---------4-----3---------4-----3---------4-----3-----|
G|-----3-----3---------3-----3---------3-----3---------3-----3-----|
D|-3---------------5---------------6---------------8---------------|
A|-3---------------5---------------6---------------8---------------|
E|-1---------------3---------------4---------------6---------------|
 |                                                                 |
e|-----------------------------------------------------------------| (M)
B|-----------------------------------------------------------------|
G|-----------------------------------------------------------------|
D|-3---------------5---------------6---------------8---------------|
A|-3---------------5---------------6---------------8---------------|
E|-1---------------3---------------4---------------6---------------|


e|-----------------------------------------------------------------| (A)
B|-----4-----3-----4-----4-----3-------4-----3-----4-----4-----3---|
G|-5---3-----3-----3-----3-----3---3---3-----3-----3-----3-----3---|
D|-5-------------------------------3-------------------------------|
A|-3-------------------------------1-------------------------------|
E|-----------------------------------------------------------------|
 |                                                                 |
e|-----------------------------------------------------------------| (M)
B|-----------------------------------------------------------------|
G|-5---------5-----5-----5---5-5-5-3---------3-----3-----3---3-3-3-|
D|-5---------5-----5-----5---5-5-5-3---------3-----3-----3---3-3-3-|
A|-3-------3-3---3-3-----3---3-3-3-1-------1-1---1-1-----1---1-1-1-|
E|-----------------------------------------------------------------|


e|-----------------------------------------------------------------| (A)
B|-----4-----3---------4-----3---------4-----3---------4-----3-----|
G|-----3-----3---------3-----3---------3-----3---------3-----3-----|
D|-3---------------5---------------6---------------8---------------|
A|-3---------------5---------------6---------------8---------------|
E|-1---------------3---------------4---------------6---------------|
 |                                                                 |
e|-----------------------------------------------------------------| (M)
B|-----------------------------------------------------------------|
G|-----------------------------------------------------------------|
D|-3---------3-----5---------5-----6---------6-----8---------8-----|
A|-3---------3-----5---------5-----6---------6-----8---------8-----|
E|-1-------1-1-----3-------3-3-----4-------4-4-----6-------6-6-----|


e|-----------------------------------------------------------------| (BOTH) \
B|-----4-----3-----4-----4-----3-------4-----3-----4-----4-----3---|         |
G|-5---3-----3-----3-----3-----3---3---3-----3-----3-----3-----3---|         |
D|-5-------------------------------3-------------------------------|         |
A|-3-------------------------------1-------------------------------|         |
E|-----------------------------------------------------------------|         |
                                                                             | Play 2x
e|-----------------------------------------------------------------| (BOTH)  |
B|-----4-----3---------4-----3---------4-----3---------4-----3-----|         |
G|-----3-----3---------3-----3---------3-----3---------3-----3-----|         |
D|-3---------------5---------------6---------------8---------------|         |
A|-3---------------5---------------6---------------8---------------|         |
E|-1---------------3---------------4---------------6---------------|        /


END

e|-----------------------------------------| (A)
B|-----4-----4-----4-----4-------3---------|
G|-----------------------------------------|
D|---5-----5-----5-----5-------5-----------|
A|-3-----3-----3-----3-------5-------------|
E|-------------------------3---------------|
 |                                         |
e|-----------------------------------------| (M)
B|-------------------------------3---------|
G|-----5-----------------------------------|
D|---5-------6-----5-----3-----5-----------|
A|-3-------6-----5-----3-----5-------------|
E|-------4-----3-----1-----3---------------|

e|-----------------------------------------------------------------| (BOTH)
B|-----------------------------------------------------------------|
G|-5-5-5-5-5-5-5-5-5-5-5-5-5-5-5-5-5-5-5-5-5-5-5-5-5-5-5-5-5-5-5-5-|
D|-5-5-5-5-5-5-5-5-5-5-5-5-5-5-5-5-5-5-5-5-5-5-5-5-5-5-5-5-5-5-5-5-|
A|-3-3-3-3-3-3-3-3-3-3-3-3-3-3-3-3-3-3-3-3-3-3-3-3-3-3-3-3-3-3-3-3-|
E|-----------------------------------------------------------------|

************************************

| /   slide up
| \   slide down
| h   hammer-on
| p   pull-off
| ~   vibrato
| +   harmonic
| x   Mute note
| b   Bend
| pb  Pre-bend
| br  Bend release
| pbr Pre-bend release
| brb Bend release bend

************************************
Suggest correction
Creating personal tab
Creating personal tab
You can edit any tab online and save it as your Personal.

You can edit, replace or remove any tab part or add personal notes – all changes will be seen only by you.

Personal tabs can be accessed anytime from any device, even offline.
Learn more »
Give kudos to tab author, rate the tab!
1 2 3 4 5
comments
print report bad tab
guest
You may want to rate the tab now too:
select rating
Wanna post a correction for this tab? Suggest correction