Oops, an error
Loading. Please wait.

Whats Next To The Moon Tab

version 1
version 1

Whole song

Interactive

by AC/DC
11,565 views 9 this week
10 commentsread comments
1 2 3 4 5
x 12
add to favorites
launch autoscroll
font size
0
reset
how to read this tab
guitar tuner
×
Best way to learn
"Whats Next To The Moon"
Autoscroll
slow
fast
+/-
esc
set tempo
stop
Author
               -------------------------------------------------
                      what's next to the moon by ac/dc
               -------------------------------------------------
     tabbed by:ruben celius
     e-mail:r_celius@hotmail.com

e|-------------------------------------------------------------------------|
b|-------------------------------------------------------------------------|
g|-------------------------------------------------------------------------|
d|-0---0---2---0---0---2---0---0---2---0---0---2---0---0---2---0---0---2---|
a|---0-----2-----0-----2-----0-----2-----0-----2-----0-----2-----0-----2---|
e|-------------------------------------------------------------------------|


e|-------------------------------------------------------------------------|
b|-------------------------------------------------------------------------|
g|-------------------------0---0---2---0---0---2---------------------------|
d|-0---0---2---0---0---2-----0-----2-----0-----2---0---0---2---0---0---2---|
a|---0-----0-----0-----2-----------------------------0-----2-----0-----2---|
e|-------------------------------------------------------------------------|

   it's her love.....            play four times
e|-----------------2-2-----------------------------------------------------|
b|---------------2-3-3-2---------------------------------------------------|
g|-------------1-2-2-2-2-1-------------------------------------------------|
d|-------------2-2-0-0-2-2-------------------------------------------------|
a|-------------2-0-----0-2-------------------------------------------------|
e|-------------0---------0-------------------------------------------------|

   but what's next to the moon
e|------------------2------------------------------------------------------|
b|--------------2---3---2--------------------------------------------------|
g|--------------2---2---2--------------------------------------------------|
d|--------------2---0---2--------------------------------------------------|
a|--------------0-------0--------------------------------------------------|
e|-------------------------------------------------------------------------|
Suggest correction
comments
print report bad tab
10 comments total. Showing first comments.
0 reply
ruben1231234 50 Mar 12, 2004 07:00 PM

hi......i am ruben1231234.......i did write some thig wrong on my tab(what's next to the moon by ac/dc) i wrote like this
e|-----2-2------ e|-----2-2-----
b|---2-3-3-2---- b|---2-3-3-2---
g|-2-2-2-2-2-2-- but it is realy like this g|-1-2-2-2-2-1-
d|-2-2-0-0-2-2-- d|-2-2-0-0-2-2-
a|-1-0-----0-1-- a|-2-0-----0-2-
e|-0---------0-- e|-0---------0-

0 reply
ruben1231234 50 Mar 12, 2004 07:00 PM

like this it meant to be over this

e|-----2-2-------
b|---2-3-3-2-----
g|-1-2-2-2-2-1---
d|-2-2-0-0-2-2---
a|-2-0-----0-2---
e|-0---------0---

0 reply
ruben1231234 50 Mar 14, 2004 07:00 PM

hi it's me again. just forget about whats standing over here

guest
You may want to rate the tab now too:
select rating
Wanna post a correction for this tab? Suggest correction