Oops, an error
Loading. Please wait.

Whats Next To The Moon Tab

version 2
version 2

Whole song

Interactive

by AC/DC
2,674 views 1 this week
10 commentsread comments
1 2 3 4 5
x 4
add to favorites
×
Save as Personal and add changes to this tab that will be seen only by you. Learn more ›
×
You can save this tab as Personal to edit and correct it or add notes. All changes will be seen only by you. Learn more »
save as personal
new!
launch autoscroll
font size
0
reset
how to read this tab
guitar tuner
Autoscroll
slow
fast
+/-
esc
set tempo
stop
Author
Intro

e|-------------------------------------------------------------------------|
B|-------------------------------------------------------------------------|
G|-------------------------------------------------------------------------|
D|0---0-2------------------------------------------------------------------|
A|-0--0-2------------------------------------------------------------------|
E|------0------------------------------------------------------------------|

(Play 4x)

Verse

e|------------------------------------------------------------------------|
B|------------------------------------------------------------------------|
G|-----------------------------------0--0-2---0--0-2----------------------|
D|0--0-2---0--0-2---0--0-2---0--0-2---0-0-2----0-0-2--0--0-2---0--0-2-----|
A|-0-0-2----0-0-2----0-0-2----0-0-2-------0-------0----0-0-2----0-0-2-----|
E|-----0------0-0--------0--------0------------------------0--------0-----|

Chorus

e|-------------------------------------------------------------------------|
B|-------------------------------------------------------------------------|
G|-------------------------------------------------------------------------|
D|-------------------------------------------------------------------------|
A|---7-7-7-7-2-------------------------------------------------------------|
E|0--4-5-5-4-0-------------------------------------------------------------|


Bridge/Ending

e|-------------------------------------------------------------------------|
B|-------------------------------------------------------------------------|
G|-------------------------------------------------------------------------|
D|----2------0--4-2-0------------------------------------------------------|
A|--2------0---------------------------------------------------------------|
E|0------0-----------------------------------------------------------------|


Order of song:

1.Intro(play riff 4x)
2.Verse(1x)
3.Chorus(4x)
4.Verse(1x)
5.Chorus(4x)
6.Bridge(4x)
7.Chorus(2x)
8.Verse(1x)
9.Chorus(8x)
10.Bridge(play till fade)


Sorry, no solo.


tabbed by Catherine Bromhead
Suggest correction
comments
print report bad tab
10 comments total. Showing first comments.
0 reply
metal boy 81 Aug 13, 2004 08:00 PM

this is totaly wrong......you gotta listen to the song better than you have!!!!!!!!!

0 reply
SoulStripper7 50 Oct 08, 2004 08:00 PM

this is what my guitar teacher taught me, so deal with it. But I have to edit some bits, so here is the edited version:

Intro

e|-------------------------------------------------------------------
B|-------------------------------------------------------------------
G|-------------------------------------------------------------------
D|0---0-2------------------------------------------------------------
A|-0--0-2------------------------------------------------------------
E|------0------------------------------------------------------------

(Play 4x)

Verse

e|-------------------------------------------------------------------
B|-------------------------------------------------------------------
G|-----------------------------------0--0-2---0--0-2-----------------
D|0--0-2---0--0-2---0--0-2---0--0-2---0-0-2----0-0-2--0--0-2---0--0-2
A|-0-0-2----0-0-2----0-0-2----0-0-2-------0-------0----0-0-2----0-0-2
E|-----0------0-0--------0--------0------------------------0--------0

Chorus

e|-------------------------------------------------------------------
B|-------------------------------------------------------------------
G|-------------------------------------------------------------------
D|-------------------------------------------------------------------
A|---7-7-7-7-2-------------------------------------------------------
E|0--4-5-5-4-0-------------------------------------------------------


Bridge/Ending

e|-------------------------------------------------------------------
B|-------------------------------------------------------------------
G|-------------------------------------------------------------------
D|----2------0--4-2-0------------------------------------------------
A|--2------0---------------------------------------------------------E|0------0-----------------------------------------------------------


Order of song:

1.Intro(play riff 4x)
2.Verse(1x)
3.Chorus(4x)
4.Verse(1x)
5.Chorus(4x)
6.Bridge(4x)
7.Chorus(2x)
8.Verse(1x)
9.Chorus(8x)
10.Bridge(play till fade)

0 reply
SoulStripper7 50 Oct 08, 2004 08:00 PM

PS. That last bit is a little messed up, so here it is:

Bridge/Ending

e|-------------------------------------------------------------------
B|-------------------------------------------------------------------
G|-------------------------------------------------------------------
D|----2------0--4-2-0------------------------------------------------
A|--2------0---------------------------------------------------------E|0------0-----------------------------------------------------------

guest
You may want to rate the tab now too:
select rating
Wanna post a correction for this tab? Suggest correction