Oops, an error
Loading. Please wait.
We have an official Who Made Who tab made by UG professional guitarists. Check out the tab »
×
by AC/DC
8,921 views 12 this week
3 commentsread comments
1 2 3 4 5
x 7
add to favorites
×
Save as Personal and add changes to this tab that will be seen only by you. Learn more ›
×
You can save this tab as Personal to edit and correct it or add notes. All changes will be seen only by you. Learn more »
launch autoscroll
font size
0
reset
guitar tuner
backing track
0:00
0:00
edit
Autoscroll
slow
fast
+/-
esc
set tempo
stop
Author
-------------------------------------------------------------------------------
			     Who Made WHO - AC/DC
-------------------------------------------------------------------------------

Tabbed By : Alander
e-mail: one_19882003@yahoo.com

Tuning: standard

      Intro: bass and drums
G|---------------------------------------------------------------------------|
D|---------------------------------------------------------------------------|
A|------3333-----3333----3333----3333----3333--------------------------------|
E|---------------------------------------------------------------------------|
     Malcolm's guitar starts
G|---------------------------------------------------------------------------|
D|---------------------------------------------------------------------------|
A|--------3333-----3333----3333-----3333-----3333----------------------------|
E|---------------------------------------------------------------------------|
  
G|---------------------------------------------------------------------------|
D|---------------------------------------------------------------------------|
A|---------------------------------------------------------------------------|
E|---------5555---5555-----5555---5555-----5555------------------------------|
   
G|---------------------------------------------------------------------------|
D|---------------------------------------------------------------------------|
A|----------------------------- --------------------------|
E|-----3333----------3333-------3333-----------3333--------------------------|
   end verse
G|---------------------------------------------------------------------------|
D|---------------------------------------------------------------------------|
A|---------------------------------------------------------------------------|
E|---------------------------------------------------------------------------|
  who made who play during chorus       solo
G|---------------------------------------------------------------------------|
D|---------------------------------------------------------------------------|
A|-----3333------3333----3333-----3333-----------5555-----5555----5555---5555|
E|---------------------------------------------------------------------------|

G|---------------------------------------------------------------------------|
D|---------------------------------------------------------------------------|
A|---------------------------------------------------------------------------|
E|-------3333----------3333---------3333-------------------------------------|
play verse and chorus, this is the outro
G|---------------------------------------------------------------------------|
D|---------------------------------------------------------------------------|
A|---3-------1-----------------------------3---------------------------------|
E|--------------------0-------3----------------------0-----3-----------------|


  I don't think the ending is right, so play with it until you figure it out, then tell me!
Listen to the album for changes
   
| /  slide up
| \  slide down
| h  hammer-on
| p  pull-off
| ~  vibrato
| +  harmonic
| x  Mute note
===============================================================================

            
            
Suggest correction
Creating personal tab
Creating personal tab
You can edit any tab online and save it as your Personal.

You can edit, replace or remove any tab part or add personal notes – all changes will be seen only by you.

Personal tabs can be accessed anytime from any device, even offline.
Learn more »
comments
print report bad tab
3 comments total.
0 reply
mikedeit 1,163 Jun 13, 2005 08:00 PM

Nice Job

0 reply
playinbass1432 1,442 Mar 23, 2008 03:08 PM

good

0 reply
outpatient 91 Jan 01, 2015 02:38 PM

Ending is this:

G|--------------------------------------------------------|
D|---5--3-----5----3-----5-------5--3-----5----3----------|
A|---------3----------3----------------3----------3-------|
E|---------------------------------------------------3----|

guest
You may want to rate the tab now too:
select rating
Wanna post a correction for this tab? Suggest correction