Oops, an error
Loading. Please wait.
We have an official Who Made Who tab made by UG professional guitarists. Check out the tab »
×
by AC/DC
57,315 views 45 this week
20 commentsread comments
1 2 3 4 5
x 31
add to favorites
×
Save as Personal and add changes to this tab that will be seen only by you. Learn more ›
×
You can save this tab as Personal to edit and correct it or add notes. All changes will be seen only by you. Learn more »
launch autoscroll
font size
0
reset
how to read this tab
guitar tuner
backing track
0:00
0:00
edit
Autoscroll
slow
fast
+/-
esc
set tempo
stop
Author
WHO MADE WHO
As recorded by AC/DC
(From the 1986 Album WHO MADE WHO SOUNDTRACK)
Words and Music by Angus Young, Malcolm Young, & Brian Johnson

          C5                   A5                   G5
      x 3 5 5 x x          x 0 2 2 x x          3 5 5 x x x
Gtr I (E A D G B E) - 'Malcolm Young - Rhythm Guitar'
Gtr II (E A D G B E) - 'Angus Young - Lead Guitar'
Gtr III (E A D G B E) - 'Angus Young - Lead Guitar (overdub)'

[Intro]
Moderate Rock Q=132
                   C5
 4/4
  Gtr I
  Wx4            E E E E +H      4x
e|------------||------------------||
B|------------||o----------------o||
G|------------||----5---5-(5)-----||
D|------------||----5---5-(5)-----||
A|------------||o---3---3-(3)----o||
E|------------||------------------||

[Verse 1]
       C5                     A5
     E E E E +H      4x     E E E E +H
e||------------------||-||------------------||
B||o----------------o||-||o----------------o||
G||----5---5-(5)-----||-||----2---2-(2)-----||
D||----5---5-(5)-----||-||----2---2-(2)-----||
A||o---3---3-(3)----o||-||o---0---0-(0)----o||
E||------------------||-||------------------||

         G5                     C5
       E E E E +H      4x     E E E E +H      3x
e|-||------------------||-||------------------||
B|-||o----------------o||-||o----------------o||
G|-||------------------||-||----5---5-(5)-----||
D|-||----5---5-(5)-----||-||----5---5-(5)-----||
A|-||o---5---5-(5)----o||-||o---3---3-(3)----o||
E|-||----3---3-(3)-----||-||------------------||

                       [Verse 2]
                            C5
   Gtr I
   E E E E +H           E   E   E   E   +H                 4x
e|------------------||-------------------------------------|
B|------------------||o-----------------------------------o|
G|---5---5-(5)------||------5-------5---(5)----------------|
D|---5---5-(5)------||------5-------5---(5)----------------|
A|---3---3-(3)------||o-----3-------3---(3)---------------o|
E|------------------||-------------------------------------|

   Gtr II
   H        q   Q       S S S S S S S S  S  S S S S S S S  4x
e|----------8-------||-------------------------------------|
B|----------8-------||o-----------------------------------o|
G|--------------9\--||-------------------------------------|
D|------------------||--2---3---5---3----2----3---5---3----|
A|------------------||o---3---3---3---3-----3---3---3---3-o|
E|------------------||-------------------------------------|

           A5
       E   E   E   E   +H
e|-------------------------------------|
B|o-----------------------------------o|
G|------2-------2---(2)----------------|
D|------2-------2---(2)----------------|
A|o-----0-------0---(0)---------------o|
E|-------------------------------------|

       S S S S S S S S  S S S S S S S S
e|-||-------------------------------------|
B|-||o-----------------------------------o|
G|-||-------------------------------------|
D|-||-------------------------------------|
A|-||o-4p0-5p0-7p0-5p0--4p0-5p0-7p0-5p0--o|
E|-||-------------------------------------|

         G5
    E   E   E   E   +H                 4x
e|-------------------------------------|
B|o-----------------------------------o|
G|-------------------------------------|
D|------5-------5---(5)----------------|
A|o-----5-------5---(5)---------------o|
E|------3-------3---(3)----------------|

    S S S S S S S S  S  S S S S S S S  4x
e|-------------------------------------|
B|o-----------------------------------o|
G|-------------------------------------|
D|-------------------------------------|
A|o-2---3---5---3----2----3---5---3---o|
E|----3---3---3---3-----3---3---3---3--|

           C5
       E   E   E   E   +H                 4x
e|-------------------------------------|
B|o-----------------------------------o|
G|------5-------5---(5)----------------|
D|------5-------5---(5)----------------|
A|o-----3-------3---(3)---------------o|
E|-------------------------------------|

       S S S S S S S S  S  S S S S S S S  4x
e|-------------------------------------|
B|o-----------------------------------o|
G|-------------------------------------|
D|--2---3---5---3----2----3---5---3----|
A|o---3---3---3---3-----3---3---3---3-o|
E|-------------------------------------|

[Chorus]
    C5
[Gtr I]
  E E E E +H         E   E E E +H
[Gtr II]
   E Q   E +E  Q  E   S S Q   E +E  Q.
e|------------------|--------------------|
B|-------1-(1)-1----|---------1-(1)------|
G|---0---------0--0-|-----0---------0----|
D|-2--------------3-|-2h3----------------|
A|------------------|--------------------|
E|------------------|--------------------|

  E E E E +H          E  E E E +H
    |   |  |             |   |  |
    /   /  /             /   /  /

   E Q   E +E  Q  E   +E  E E E  E Q.
e|------------------|--------------------|
B|-------1-(1)-1----|-------1------------|
G|---0---------0--0-|-(0)-0--------0-----|
D|-2--------------3-|-(3)-----2--3-------|
A|------------------|--------------------|
E|------------------|--------------------|

  E E E E +H          E  E E E +H
    |   |  |             |   |  |
    /   /  /             /   /  /

   E Q   E +E  Q  E   +E  Q   E +E  Q.
e|------------------|--------------------|
B|-------1-(1)------|---------1-(1)------|
G|---0---------0----|-----0---------0----|
D|-2--------------3-|-(3)----------------|
A|----------------3-|-(3)----------------|
E|------------------|--------------------|

          To Coda
  E E E E +H          E  E    E    E +H
    |   |  |             |         |  |
    /   /  /             /         /  /

   E E E E +E  Q  E   +E  S S +S  S E +E  Q.
e|------------------|--------------------------|
B|-----1-1-(1)------|-------1-(1)-1------------|
G|---0---------0----|-----0---------0-(0)-0----|
D|-2--------------3-|-(3)-----------3-(3)------|
A|------------------|--------------------------|
E|------------------|--------------------------|

   G5     F/G      C/G     G5
   Gtr I
   E  E E E +Q.    E   +E  E  E E +E  E E E
e|-------------------|----------------------|
B|-------------------|----------------------|
G|-----------------0-|-(0)-0----0-(0)---0-0-|
D|----5---3-(3)----2-|-(2)-0----0-(0)---0-0-|
A|----5---3-(3)------|----------------------|
E|-3--3---3-(3)----3-|-(3)-3----3-(3)-3-3-3-|

   Gtr II
   Q.     E +Q   Q     +E  Q.      E  E Q
e|-------------------|----------------------|
B|--------1-(1)--1---|-(1)-0-------0--------|
G|-0------0-(0)--0---|-(0)-0----------0-----|
D|-0------3-(3)--2---|-(2)-0------------0---|
A|-------------------|----------------------|
E|-------------------|----------------------|

   C5    C/G         G5
   E E E E +E  E   E E   +E  E E E +H
e|---------------------|------------------|
B|---------------------|------------------|
G|---0---0-(0)-0-----0-|-(0)-0---0-(0)----|
D|---0---2-(2)-----0-0-|-(0)-0---0-(0)----|
A|---------------------|------------------|
E|-3-3---3-(3)-------3-|-(3)-3---3-(3)----|

   Q   E E +E.   S E E   +E  Q   E  H
e|---------------------|------------------|
B|-1-----1-(1)-------0-|-(0)--------------|
G|-0-----0-(0)---0---0-|-(0)-0---0--0-----|
D|-3---3-2-(2)-----0-0-|-(0)-0---0--0-----|
A|---------------------|------------------|
E|-------------------3-|-(3)-3---3--3-----|

     C                Csus4
   E E E E +Q.    E   E E E E +Q.    E
e|------------------|------------------|
B|---1---1-(1)----1-|-1-1---1-(1)----1-|
G|---0---0-(0)----0-|-0-0---0-(0)----0-|
D|---2---2-(2)----2-|-3-3---3-(3)----3-|
A|---3---3-(3)----3-|-3-3---3-(3)----3-|
E|------------------|------------------|

   E E E E +E  Q  E   E Q   E +Q   Q
e|------------------|------------------|
B|---1---1-(1)------|---1--------------|
G|---0-0-------0----|-0-----0-(0)--0---|
D|-2--------------3-|-------3-(3)------|
A|------------------|------------------|
E|------------------|------------------|

   C                       Csus4   Cadd4
   E E    E  E  Q.     E   E E E   E +H
e|-----------------------|---------0-(0)----|
B|-1-1-------1--1------x-|-1-1-1---1-(1)----|
G|-0-0-------0--0------x-|-0-0-0---0-(0)----|
D|-2-2-------2--2------x-|-3-3-3---3-(3)----|
A|-3-3-------3--3------x-|-3-3-3---3-(3)----|
E|-----------------------|------------------|

   E S S +E  E +E  Q.      E E S S E +H
e|-----------------------|---------0-(0)----|
B|-----------1-(1)-------|---------1-(1)----|
G|-----0-(0)-------0-----|---0-3p0-0-(0)----|
D|-2-2-------------------|-3-------3-(3)----|
A|-----------------------|------------------|
E|-----------------------|------------------|

[Guitar Solo]
               N.C.(A)           A5
[Gtr II]
                             T              T                             T
               |-3-|     |-----6-----| |----6-----|  |----6-----| |-3-|
  +H.      S S S S S     S   S S S S S S S  S S S S  S  S S S S S S S S   S S
e|-(0)--------5h8p5p0h||==7--12p0h8p5p0h7p5-12p8p5p0h=7p=5p0h8p5p0h7p5p0-/12p8-|
B|-(1)----------------||-------------------------------------------------------|
G|-(0)----------------||-------------------------------------------------------|
D|-(3)----------------||-------------------------------------------------------|
A|--------------------||-------------------------------------------------------|
E|--------------------||-------------------------------------------------------|

[Gtr I]
   +H.      E   E        +E       E     E      E     +E      E     E       E
e|-(0)----------------||-------------------------------------------------------|
B|-(1)----------------||-------------------------------------------------------|
G|-(0)----------------||----------2--------------------------2-------------2---|
D|-(3)----------------||----------2--------------------------2-------------2---|
A|-(3)----------0-----||-(0)------0------------0-----(0)-----0-------------0---|
E|--------------------||-------------------------------------------------------|

                     |-3-|
   +Q.     S S Q   E S S S
e|-(8)-----8p5-------8p5p0-|
B|-------------------------|
G|-------------------------|
D|-------------------------|
A|-------------------------|
E|-------------------------|
|
 | +E  E E S S E E E E
e|-------------------------|
B|-------------------------|
G|-(2)-2---2-2-2-2---2-----|
D|-(2)-2---2-2-2-2---2-----|
A|-(0)-0---0-0-0-0---0-----|
E|-------------------------|

                                   A6          A5
  |----6----| |-----6------| |----6----|   |3|
  S S S S S S S S  S S S   S S S S S S S a E S E   +E  E E H          E
e|-7p5p0h8p5p0h7p5-12p8p5p==0h7p5p0h8p5p0h5s3-0-3-|-(3)-5-----------------|
B|------------------------------------------------|---------x\---------0h=|
G|------------------------------------------------|---------x\------------|
D|------------------------------------------------|---------x\------------|
A|------------------------------------------------|-----------------------|
E|------------------------------------------------|-----------------------|

   E     E     E      S   S   E     E       E   E   +E  E E E  +E  E E E
e|------------------------------------------------|-----------------------|
B|------------------------------------------------|-----------------------|
G|-2-----2-----2------2---2---2-----------------2-|-(2)-2---2--(2)-2-2----|
D|-2-----2-----2------2---2---2-----4-----------2-|-(2)-2---2--(2)-2-2----|
A|-0-----0-----0------0---0---0-----0-----------0-|-(0)-0---0--(0)-0-0----|
E|------------------------------------------------|-------3------------0--|

  G                   G7sus4              C/G
  |-----7-----| |----6----|               |----6----|
  S S S S S S S S S S S S S  T  T T T S.T S S S S S S
e|-----------------------------------------------------|
B|-6p3p0h6p3p0h6p3p0h6p3p0h6p=3p=0---------------------|
G|---------------------------------5p4h5p4h5p4p0h5p4p0h|
D|-----------------------------------------------------|
A|-----------------------------------------------------|
E|-----------------------------------------------------|
 
   Q.                  E     +Q            Q
e|-----------------------------------------------------|
B|-0-------------------1-----(1)-----------------------|
G|-0-------------------0-----(0)-----------0-----------|
D|-0-------------------3-----(3)-----------2-----------|
A|-----------------------------------------------------|
E|-3-------------------3-----(3)-----------3-----------|

          G
   |-----6-----|
   S  S S S  S S +E  E   E  S S S S E
e|--------------0-(0)--------------------|
B|------------0-------x\-----0-------x\--|
G|--5p=4---0----------x\-----0-2p0---x\--|
D|-------0------------x\-----0-----3-x\--|
A|---------------------------------------|
E|------------------------0--------------|

   +E      Q.            +H
e|---------------------------------------|
B|---------0-------------(0)-------------|
G|-(0)-----0-------------(0)-------------|
D|-(2)-----0-------------(0)-------------|
A|---------------------------------------|
E|-(3)-----3-------------(3)-------------|

  Fm                                     Fsus4
           T      T      T       T             T    T
  |-----6------|
  S S S S  S T T  S T T  T S.S.  T S T T T  T  S T  T S
e|------------------------------------------h7-----------|
B|-6h9p6h9-13p6h9-13p9p6-14p9p6--15p9p6h9p6----16p6-16p9p|
G|-------------------------------------------------------|
D|-------------------------------------------------------|
A|-------------------------------------------------------|
E|-------------------------------------------------------|

   E     E         E      E   E     E     E       E
e|-------------------------------------------------------|
B|-1-----1---------1------1---1-----1--------------------|
G|-1-----1---------1------1---1-----1-----3-------3------|
D|-3-----3---------3------3---3-----3-----3-------3------|
A|-3-----3---------3------3---3-----3-----3-------3------|
E|-1-----1---------1------1---1-----1-----1-------1------|

  Fm
             T          T   T   T    T    T         T
               |-----6------|   |----6----|   |3-|  |3|
  T T S T T  S S S S S  S   S   S S  S S  E  +E  S  E S
e|-------------------------(16)----------------------------|
B|-6h9p6h9p6-11p9p6h9p6-18--16--18p9-21p9-21-(21)p9-21p9---|
G|---------------------------------------------------------|
D|---------------------------------------------------------|
A|---------------------------------------------------------|
E|---------------------------------------------------------|

   E     E      E     E          E      E      E     E
e|---------------------------------------------------------|
B|-1-----1------1-----1----------1------1------1-----1-----|
G|-1-----1------1-----1----------1------1------1-----1-----|
D|-3-----3------3-----3----------3------3------3-----3-----|
A|-3-----3------3-----3----------3------3------3-----3-----|
E|-1-----1------1-----1----------1------1------1-----1-----|

[Verse 3]
    C5
  Gtr I
  E E E E +H          E  E E E +H
    |   |  |             |   |  |
    /   /  /             /   /  /

[Gtr II]
   E Q   E +E  Q  E   +E  E E E +E  Q.
e|------------------|--------------------|
B|-------1-(1)------|-----1---1-(1)------|
G|---0---------0----|-------0-0-(0)-0----|
D|-2--------------3-|-(3)-----3-(3)------|
A|------------------|--------------------|
E|------------------|--------------------|

  E E E E +H          E  E E E +H
    |   |  |             |   |  |
    /   /  /             /   /  /

   E Q   E +E  Q  E   +E  Q   E +E  E E E
e|-------0-(0)------|---------------------|
B|---1--------------|---------1-(1)---1---|
G|---0---------0----|-----0---------0---0-|
D|-2--------------3-|-(3)-----------------|
A|------------------|---------------------|
E|------------------|---------------------|

    A5
  E E E E +H           E  E E E +H
    |   |  |              |   |  |
    /   /  /              /   /  /

   E E E E +E  E E E   +E  Q   E +E  Q.
e|-------------------|--------------------|
B|-----1-------1-----|---------1-(1)------|
G|---0---0-(0)---0---|-----0---------0----|
D|-2---------------2-|-(2)----------------|
A|-------------------|--------------------|
E|-------------------|--------------------|

    G5
  E E E E +H          E  E E E +H
    |   |  |             |   |  |
    /   /  /             /   /  /

   E Q   E +E  Q  E   +E  Q   E +E  Q  E
e|------------------|--------------------|
B|-------1-(1)------|---------1-(1)------|
G|---0---------0----|-----0---------0----|
D|-3--------------3-|-(3)--------------3-|
A|------------------|--------------------|
E|------------------|--------------------|

  E E E E +H          E  E E E +H
    |   |  |             |   |  |
    /   /  /             /   /  /

   E E E E +E  Q  E   +E  Q   E +E  Q  E
e|------------------|--------------------|
B|-------1-(1)------|---------1-(1)------|
G|-------0-(0)-0----|-----0--------------|
D|-3-2-3-------3--3-|-(3)-----------3p=2-|
A|------------------|--------------------|
E|------------------|--------------------|

    C5
  E E E E +H          E  E E E +H
    |   |  |             |   |  |
    /   /  /             /   /  /

   E Q   E +E  Q  E   +E  Q   E +E  Q  E
e|------------------|--------------------|
B|-------1-(1)------|---------1-(1)------|
G|---0---------0----|-----0---------0----|
D|-2--------------3-|-(3)--------------3-|
A|------------------|--------------------|
E|------------------|--------------------|

                          D.S. al Coda
  E E E E +H          E  E E E +H
    |   |  |             |   |  |
    /   /  /             /   /  /

   E Q   E +E  Q  E   +E  Q   E +E  Q.
e|------------------|--------------------||
B|-------1-(1)------|---------1-(1)------||
G|---0---------0----|-----0---------0----||
D|-2--------------3-|-(3)----------------||
A|------------------|--------------------||
E|------------------|--------------------||

[Outro]
  &
  CsC54                       G5  F/G      C/G
  Gtr III
                         ~~~~~~~~~~~~~~~~~~~~~
  W                      W
e|---------------------|-15-------------------|
B|---------------------|-18b20----------------|
G|---------------------|----------------------|
D|---------------------|----------------------|
A|---------------------|----------------------|
E|---------------------|----------------------|

[Gtr II]
   E Q     E +E  E E E    E    E E E +Q   Q
e|---------------------|----------------------|
B|---------1-(1)-------|-----------1-(1)--1---|
G|---0-------------0-0-|--0--------0-(0)--0---|
D|-3-------------3-----|--0----0-0-3-(3)--2---|
A|---------------------|-----------3-(3)--3---|
E|---------------------|----------------------|

[Gtr I]
   E S S E E +H           E    E E E +Q.    E
e|---------------------|----------------------|
B|---------------------|----------------------|
G|-5-5-5---5-(5)-------|--------------------0-|
D|-3-5-5---5-(5)-------|-------5---3-(3)----2-|
A|-3-3-3---3-(3)-------|-------5---3-(3)------|
E|---------------------|--3----3---3-(3)----3-|

            G5              G7              G5
  ~~~~~~~~~~                          ~~~~~~~~~~~~~~~~~~~~~~~
    +W                       Q.       E      +Q        Q
e|-(15)-------------------|-15-------15-----(15)------15--------|
B|-(18)pb20---------------|-18b20----18pb20-(18)pb20--18pb20----|
G|------------------------|-------------------------------------|
D|------------------------|-------------------------------------|
A|------------------------|-------------------------------------|
E|------------------------|-------------------------------------|

    +E      E E E +Q   Q     Q.       E      +Q        E     E
e|------------------------|-------------------------------------|
B|--(1)-------------------|--1--------1------(1)-------0--------|
G|--(0)-----0---0-(0)-----|--0--------0------(0)-------0--------|
D|--(2)-----0---0-(0)--0--|--3--------2------(2)-------0--------|
A|--(3)-------------------|-------------------------------------|
E|----------3-0-3-(3)-----|----------------------------------3--|

    +E      E E E +H         Q     E  E       Q        E     E
e|------------------------|-------------------------------------|
B|------------------------|-------------------------------------|
G|--(0)-----0---0-(0)-----|--0----------------0--------------0--|
D|--(2)-----0---0-(0)-----|--3----------------0--------------0--|
A|------------------------|-------------------------------------|
E|--(3)-----3-0-3-(3)-----|--3-----0--0-------3--------0-----3--|

   G7       G5     (FG5      C/G          F/G    C/G
             ~~~~~~
    +E       Q.         H          W
e|-(15)-----15-------------------|------------------|
B|-(18)pb20-18pb20---------------|------------------|
G|-------------------------------|------------------|
D|-------------------------------|------------------|
A|-------------------------------|------------------|
E|-------------------------------|------------------|

    +E       E     E E  E  E E E   E  E E E +Q   Q
e|-------------------------------|------------------|
B|-------------------------------|--------1-(1)--1--|
G|-------------------0--0--0-0-0-|-0--0-0-0-(0)--0--|
D|-----------0-----0-0--0--0-0-0-|-0--0-0-3-(3)--2--|
A|-------------------------------|------------------|
E|--(3)------------3----3--3-3-3-|-3--3-3-3-(3)--0--|

     E       E     E E +Q    E E   Q.     E +Q   Q
e|-------------------------------|------------------|
B|---------------------------1-0-|-0-------------1--|
G|---0-------0-------0-(0)---0-0-|-0-------------0--|
D|---3-------0-------0-(0)---2-0-|-0------3-(3)--2--|
A|-------------------------------|--------3-(3)-----|
E|---3-------3-----1-3-(3)---3-3-|-3------3-(3)--3--|

       G    (FG5      G7susC/G     G5
    W                 W
e|------------------|-----------------|
B|------------------|-----------------|
G|------------------|-----------------|
D|------------------|-----------------|
A|------------------|-----------------|
E|------------------|-----------------|

   +E  Q.   E E E E   Q.   E +E  E Q
e|------------------|-----------------|
B|-(1)-0------------|-1----1-------0--|
G|-(0)-0------0-0---|-0----0-------0--|
D|-(2)-0------0---0-|-3----2-------0--|
A|------------------|-3----3-(3)p0----|
E|-(0)-3----1-3-----|--------------3--|

   +E  Q.   E E E E   Q.   E +Q    Q
e|------------------|-----------------|
B|-(1)-0------------|-1----1-(1)------|
G|-(0)-0------0-0-0-|-0----0-(0)---0--|
D|-(2)-0------0-0-0-|-3----2-(2)---0--|
A|------------------|-3----3-(3)------|
E|-(3)-3----1-3-3-3-|-3----3-(3)---3--|

                       C5                       Csus4C5
                               ~~~~~~~      ~~~~~~~~~
    W                  Q    E  E  +Q     E  E    +E   Q    E  H
e|-------------------|-----12-12-(12)---------|---------------------|
B|-------------------|------------------13-13-|-(13)-13-------------|
G|-------------------|------------------------|------12---12--------|
D|-------------------|------------------------|---------------------|
A|-------------------|------------------------|---------------------|
E|-------------------|------------------------|---------------------|

   +E  Q   E E E E E   E Q     E  +E  Q     E    +E   Q    E +H
e|-------------------|------------------------|---------------------|
B|-(0)-0-------------|---------1--(1)---------|------------1-(1)----|
G|-(0)-0---0-0-0-0-0-|---0------------0-------|-------0-------------|
D|-(0)-0---0-0-0-0-0-|-2--------------------3-|--(3)----------------|
A|-------------------|------------------------|---------------------|
E|-(3)-3-----3-3-3-3-|------------------------|---------------------|

   +E  E E E H         E E  E  E  +Q     E  E     E   E E  E +H
e|-------------------|------------------------|---------------------|
B|-------------------|------------------------|---------------------|
G|-(0)-0-----0-------|-5-5-----5--(5)----5--5-|---5---5----5-(5)----|
D|-(0)-0-----0-------|-5-5-----5--(5)----5--5-|---3---5----5-(5)----|
A|-------------------|-3-3-----3--(3)----3--3-|---3---3----3-(3)----|
E|-(3)-3-3-3-3-------|------------------------|---------------------|

                            Csus4    C5
   H        E   E  Q         +E       E  E     E  E     S  S     +Q
e|-------------15---------|----------15-------15-------15-----------------|
B|----------------15b17---|-(15)pb17----15b17----15b17----15b17-(15)\-----|
G|------------------------|-----------------------------------------------|
D|------------------------|-----------------------------------------------|
A|------------------------|-----------------------------------------------|
E|------------------------|-----------------------------------------------|
 
   E Q   E +E   E  E    E    +E       Q        E +Q               E   E
e|------------------------|-----------------------------------------------|
B|-------1-(1)------------|--------------------1-(1)----------------------|
G|---0----------0---------|-----------0---------------------------3---5---|
D|-2---------------2----3-|--(3)----------------------------------3---5---|
A|------------------------|-----------------------------------------------|
E|------------------------|-----------------------------------------------|
 
   E E E E +Q      E    E     E       E  E     E +H
e|------------------------|-----------------------------------------------|
B|------------------------|-----------------------------------------------|
G|---5---5-(5)-----5----5-|---5-------5--------5-(5)----------------------|
D|---5---5-(5)-----5----5-|---3-------5--------5-(5)----------------------|
A|---3---3-(3)-----3----3-|---3-------3--------3-(3)----------------------|
E|------------------------|-----------------------------------------------|

   G5          G7sus4      C5            G5
[Gtr I]
   E   E   E   E   Q       E   E     E   Q.           +H
e|---------------------------------|-----3------------(3)---------------|
B|-------------1-------------------|-----3------------(3)---------------|
G|-0-----------0-----------5-------|-----0------------(0)---------------|
D|-0-----------3-----------5-------|-----0------------(0)---------------|
A|-------------------------3-------|------------------------------------|
E|-3-----------3-------------------|-----3------------(3)---------------|

[Gtr II]
   S S S S S S S S S S S S S S S S   S S S  S S S S S  S  S S S S S S S
e|---------------------------------|------------------------------------|
B|---------------------------------|------------------------------------|
G|---------------------------------|------------------------------------|
D|---------------------------------|------------------------------------|
A|-2---3---5---3---2---3---5---3---|-2---3----5---3----2----3---5---3---|
E|---3---3---3---3---3---3---3---2-|---3----3---3---3-----3---3---3---2-|

   F5           C5            G5
   Q.           E   +Q        Q
e|----------------------------3-------|
B|----------------------------3-------|
G|--------------5---(5)-------0-------|
D|-3------------5---(5)-------0-------|
A|-3------------3---(3)---------------|
E|-1--------------------------3-------|

   S  S S S S S S S  S  S S S S S S S
e|------------------------------------|
B|------------------------------------|
G|------------------------------------|
D|------------------------------------|
A|-2----3---5---3----2----3---5---3---|
E|----3---3---3---3-----3---3---3---2-|

                                                    F5            C5
   +W                                  Q.           E   +Q        Q
e|-(3)-------------------------------|-3----------------------------------|
B|-(3)-------------------------------|-3----------------------------------|
G|-(0)-------------------------------|-0--------------------------5-------|
D|-(0)-------------------------------|-0------------3---(3)-------5-------|
A|-----------------------------------|--------------3---(3)-------3-------|
E|-(3)-------------------------------|-3------------1---(1)---------------|

    S  S S S S S S S S S S S S S S S   S  S S S S S S S  S  S S S S S S S
e|-----------------------------------|------------------------------------|
B|-----------------------------------|------------------------------------|
G|-----------------------------------|------------------------------------|
D|-----------------------------------|------------------------------------|
A|--2----3---5---3---2---3---5---3---|-2----3---5---3----2----3---5---3---|
E|-----3---3---3---3---3---3---3---2-|----3---3---3---3-----3---3---3---2-|

         G5
   +E    Q.           +H
e|-------3------------(3)---------------|
B|-------3------------(3)---------------|
G|-(5)---0------------(0)---------------|
D|-(5)---0------------(0)---------------|
A|-(3)----------------------------------|
E|-------3------------(3)---------------|

    S  S S  S S S S S  S  S S S S S S S
e|--------------------------------------|
B|--------------------------------------|
G|--------------------------------------|
D|--------------------------------------|
A|--2----3----5---3----2----3---5---3---|
E|-----3----3---3---3-----3---3---3---2-|

   F/C          C5                G5
   Q.           E   +Q.           E     +W
e|--------------------------------3---|-(3)-------------------------------|
B|-1------------------------------3---|-(3)-------------------------------|
G|-2------------5---(5)-----------0---|-(0)-------------------------------|
D|-3------------5---(5)-----------0---|-(0)-------------------------------|
A|-3------------3---(3)---------------|-----------------------------------|
E|--------------------------------3---|-(3)-------------------------------|

   S  S S S S S S S  S  S S S S S S S    S  S S S S S S S S S S S S S S S
e|------------------------------------|-----------------------------------|
B|------------------------------------|-----------------------------------|
G|------------------------------------|-----------------------------------|
D|------------------------------------|-----------------------------------|
A|-2----3---5---3----2----3---5---3---|--2----3---5---3---2---3---5---3---|
E|----3---3---3---3-----3---3---3---2-|-----3---3---3---3---3---3---3---2-|

     W                                5x
e|-----------------------------------|
B|o---------------------------------o|
G|-----------------------------------|
D|-----------------------------------|
A|o---------------------------------o|
E|-----------------------------------|

    S S S S S S S S S S S S S S S S  5x
e|-----------------------------------|
B|o---------------------------------o|
G|-----------------------------------|
D|-----------------------------------|
A|o-2---3---5---3---2---3---5---3---o|
E|----3---3---3---3---3---3---3---2--|

************************************

| (n)  Ghost note
| \    Slide down
| p    Pull-off
| h    Hammer-on
| x    Dead note
| /    Slide up
| b    Bend
| pb   Pre-bend
| ~    Vibrato

************************************

            
            
Suggest correction
Creating personal tab
Creating personal tab
You can edit any tab online and save it as your Personal.

You can edit, replace or remove any tab part or add personal notes – all changes will be seen only by you.

Personal tabs can be accessed anytime from any device, even offline.
Learn more »
comments
print report bad tab
20 comments total. Showing first comments.
0 reply
ibanez87 311 Oct 12, 2005 11:08 AM

pretty good. I saw this at powertabs

0 reply
AcdcTXfan 288 Jul 11, 2006 11:29 AM

this is the best who made who tab. Good job! almost perfect, but how do you play this part fast enough to match Angus
|----------8-------||-------------------------------------||
|----------8-------||o-----------------------------------o||
|--------------9\--||-------------------------------------||
|------------------||--2---3---5---3----2----3---5---3----||
|------------------||o---3---3---3---3-----3---3---3---3-o||
|------------------||-------------------------------------||

0 reply
Voytazz 567 Aug 15, 2006 02:22 AM

great tab

guest
You may want to rate the tab now too:
select rating
Wanna post a correction for this tab? Suggest correction