Oops, an error
Loading. Please wait.
We have an official Whole Lotta Rosie tab made by UG professional guitarists. Check out the tab »
×
by AC/DC
31,803 views 3 this week
8 commentsread comments
1 2 3 4 5
x 5
add to favorites
×
Save as Personal and add changes to this tab that will be seen only by you. Learn more ›
×
You can save this tab as Personal to edit and correct it or add notes. All changes will be seen only by you. Learn more »
launch autoscroll
font size
0
reset
how to read this tab
guitar tuner
backing track
0:00
0:00
edit
Autoscroll
slow
fast
+/-
esc
set tempo
stop
Author
Whole Lotta Rosie Live by Ac/Dc       Album:
Solo                                  Ac/Dc Live Collector's
tab by Voytazz                         Edition


That is the solo played by Angus on live show. It is similar to solo
from the Let There Be Rock Album.  On your web site in ver3 of Whole Lotta
Rosie is the solo from If You Want Blood album ,which is completely
different. Here you find a REAL SOLO! So Let's ROCK!

|---------------------------------------------------------------------|
|---------------------------------------------------------------------|
|--------------------5-7-5b7r5---5-----------------------------5~-----|
|--7-7-7-7~--------7-----------7---7-7-7~-----------------------------|
|---------------------------------------------------------------------|
|---------------------------------------------------------------------|

|--------<---|---------------------5h7p5-----------------------------|
|--6h7h8-<---|--6b8----------------------8-7-5--5--------------------|
|--------
                
            
            
Suggest correction
Creating personal tab
Creating personal tab
You can edit any tab online and save it as your Personal.

You can edit, replace or remove any tab part or add personal notes – all changes will be seen only by you.

Personal tabs can be accessed anytime from any device, even offline.
Learn more »
comments
print report bad tab
8 comments total. Showing first comments.
0 reply
Voytazz 567 Aug 09, 2005 08:00 PM

:-}

0 reply
Spartan 117 40 Feb 07, 2006 09:40 AM

I think the "If You Want Blood" solo is better than the "Live" solo, but the studio version is the best.

-1 reply
CoBmundus 10 May 21, 2006 03:21 AM

its, just, terrible

guest
You may want to rate the tab now too:
select rating
Wanna post a correction for this tab? Suggest correction