Oops, an error
Loading. Please wait.

Whole Lotta Rosie Tab

version 3
version 3

Whole song

Interactive

by AC/DC
224,132 views 474 this week
38 commentsread comments
1 2 3 4 5
x 72
add to favorites
launch autoscroll
font size
0
reset
how to read this tab
guitar tuner
backing track
0:00
0:00
×
Best way to learn
"Whole Lotta Rosie"
Autoscroll
slow
fast
+/-
esc
set tempo
stop
Author
e|----------------|----------------|----------------|----------------|6 times
B|----------------|----------------|----------------|----------------|
G|--2-5---7---5-2-|----------------|--2-5---7---5-2-|----------------|
D|--2-5---7---5-2-|----------------|--2-5---7---5-2-|----------------|
A|--0-3-0-5-0-3-0-|----------------|--0-3-0-5-0-3-0-|----------------|
E|----------------|----------------|----------------|----------------|

e|----------------|----------------||-----------------|---------------|7x's
B|----------------|----------------||-----------------|---------------|
G|----------------|--2-5---7---5-2-||---2-----2-----2-|---------------|
D|----------------|--2-5---7---5-2-||---2-----2-----2-|---------------|
A|----------------|--0-3-0-5-0-3-0-||-0-0-0-0-0-0-0-0-|-0-3-0-5-0-3-0-|
E|----------------|----------------||-----------------|---------------|

e|--------------------|----------------|----------------|----------------|
B|--------------------|----------------|----------------|-3-----3-----3--|
G|-2-2-2--2--2-2-2--2-|----------------|----------------|-2-----2-----2--|
D|-2-2-2--2--2-2-2--2-|-3----3----3----|----------------|-0-----0-----0--|
A|-0-0-0--0--0-0-0--0-|-3----3----3----|----------------|----------------|
E|--------------------|-1----1----1----|----------------|----------------|

e|-----------------------|------------------------3-|-----------------------|
B|-----------------------|------------------------3-|-----------------------|
G|-----------------------|-2-------------------2--0-|-----------------------|
D|-----------------------|-2-------------------2--0-|-----------------------|
A|-----------------------|-0-------------------0----|-----------------------|
E|-----------------------|------------------------3-|-----------------------|

e|---------------------3-|--------------------------|---------------------3-|
B|---------------------3-|--------------------------|---------------------3-|
G|-2----------------2--0-|--------------------------|-2----------------2--0-|
D|-2----------------0--0-|--------------------------|-2----------------2--0-|
A|-0----------------0----|--------------------------|-0----------------0----|
E|---------------------3-|--------------------------|---------------------3-|

e|-----------------------|-------------------------|-----------------------|
B|-----------------------|--3--------3--------3----|--3-------3-------3----|
G|-----------------------|--0--------0--------0----|--0-------0-------0----|
D|-----------------------|--0--------0--------0----|--0-------0-------0----|
A|-----------------------|-------------------------|-----------------------|
E|-----------------------|--3--------2--------3----|--2-------3-------4----|

e|--------------------|--------------|--------------------|--------------|7x
B|--------------------|--------------|--------------------|--------------|
G|----2---2---2-----2-|--------------|----2---2---2-----2-|--------------|
D|----2---2---2-----2-|--------------|----2---2---2-----2-|--------------|
A|--0-0-0-0-0-0-0-0-0-|--0-3-0-5-3-0-|--0-0-0-0-0-0-0-0-0-|--0-3-0-5-3-0-|
E|--------------------|--------------|--------------------|--------------|


[Solo]
                                    ~~~~~~~~~~~~
e|----------------------------|--------------------------------------------|
B|----------------------------|--------------------------------------------|
G|--5-5555-5-5-5-5-5-5-5-5-5-5|-5-----------------5-5-5-5-5-5-5-5555555555-|
D|----------------------------|----7-------------\-------------------------|
A|----------------------------|--------------------------------------------|
E|----------------------------|--------------------------------------------|

   ~~~~~~  ~~~~~~~~~~~~
e|-----------------------------|---------------------------|
B|-----------------------------|---------------------------|
G|-------------------------5-5-|-5-5--5--5-5---5-5--5--5-5-|
D|-7-------7------------\------|---------------------------|
A|-----------------------------|---------------------------|
E|-----------------------------|---------------------------|

e|------------------------------|-------------------------------|
B|------------------------------|-----------------------8-------|
G|---5-5--5--5-5-5-5-5-5-5\4(5)-|---7\(9)-----------------7\(9)-|
D|------------------------------|-------------------------------|
A|------------------------------|-------------------------------|
E|------------------------------|-------------------------------|

    ~~~~~~~~~~~~~~~~                             ~~~~~~~
e|----------------------5-----|----------------------------5----|
B|-------------------------8--|-5-----------------------------8-|
G|-\7-------------------------|---7--5-7-5---7---5--------------|
D|----------------------------|------------7---7----------------|
A|----------------------------|---------------------------------|
E|----------------------------|---------------------------------|

                             ~~~~~~
e|-----------------------------------------------|
B|---5--------------------------------------8(10)|
G|------7--5--7--5-----7-----5-----5-----5-------|
D|------------------7-----7----------------------|
A|-----------------------------------------------|
E|-----------------------------------------------|

      HOLD BEND FOR WHOLE BAR!
e|--------------------------------------------------------------------------|
B|-----(10)-(10)-(10)-(10)-(10)-(10)-(10)-(10)-(10)-(10)-(10)-(10)-(10)-(10)|
G|--------------------------------------------------------------------------|
D|--------------------------------------------------------------------------|
A|--------------------------------------------------------------------------|
E|--------------------------------------------------------------------------|


       AND THIS ONE TOO!                  ~~~~~~~~~~~~~
e|-------------------------------------------------------7--8-|
B|--(10)-(10)-(10)-(10)-(10)-(10)-(10)------------------------|
G|------------------------------------------------------------|
D|------------------------------------------------------------|
A|------------------------------------------------------------|
E|------------------------------------------------------------|

e|---7--5--7--8--7--5--7--8--7--5--7--8--7--5--7--8--|
B|---------------------------------------------------|
G|---------------------------------------------------|
D|---------------------------------------------------|
A|---------------------------------------------------|
E|---------------------------------------------------|

e|---7--5--7--8--7--5--7--8--7--5--7--8--10--8--7----|
B|-------------------------------------------------8-|
G|---------------------------------------------------|
D|---------------------------------------------------|
A|---------------------------------------------------|
E|---------------------------------------------------|

e|--5------------------------------------------------|
B|----5--7--5--7--5----------------------------------|
G|-------------------7--5------------5---------------|
D|-------------------------7------5-------7----------|
A|---------------------------------------------------|
E|---------------------------------------------------|

e|---------------------------------------------|---------------------------|
B|--------------------------------------13--15-|-(17)---------15(17)----\--|
G|---------------------------------------------|---------------------------|
D|-----------------7-----------------\---------|---------------------------|
A|-------------/9------------------------------|---------------------------|
E|---------------------------------------------|---------------------------|

e|----------5------8----8----7-|----5-----7-------5---------5---------------|
B|-----/7----------------------|-----------------------8-------7--8/7/5-7/5-|
G|-----------------------------|--------------------------------------------|
D|-----------------------------|--------------------------------------------|
A|-----------------------------|--------------------------------------------|
E|-----------------------------|--------------------------------------------|

  ~~~~~~~~~~~~~~~~~~~~~~~~~~~~~~~~~~~~~
e|------------------------------------------------|
B|----------------------------------------/9\-----|
G|------------------------------------------------|
D|------------------------------------------------|
A|------------------------------------------------|
E|------------------------------------------------|

                repeat bar below once                   ~~~~~~~~
e|--------------------------------------|-----------------------------------|
B|--------------------------------------|-----------------------------------|
G|--------5---------7---------5---------|----2---5-------7-------5---2------|
D|--/7---------7---------7---------7----|----2---5-------7-------5---2------|
A|--------------------------------------|----0---3---0---5---0---3---0------|
E|--------------------------------------|-----------------------------------|

                                ~~~~~~                            ~~~~~~~
e|---------------------------------|-----------------------------------|
B|---------------------------------|-----------------------------------|
G|----------5-------7-------5------|--------5-------7-------5----------|
D|-----/7-------7-------7-------7--|----7-------7-------7---------7----|
A|---------------------------------|-----------------------------------|
E|---------------------------------|-----------------------------------|

e|-----------------------------|-----------------------------------|
B|-----------------------------|-----------------7-----------------|
G|-------5-------7-------5-----|--------5--------7-------5---------|
D|---7-------7-------7-------7-|---7--------7--------7--------7----|
A|-----------------------------|-----------------------------------|
E|-----------------------------|-----------------------------------|

e|-----------------------------------|-----------------------------------|
B|-----------------7-----------------|----------------7------------------|
G|--------5--------7-------5---------|--------5-------7--------5---------|
D|---/7-------7--------7--------7----|---/7-------7-------7---------7----|
A|-----------------------------------|-----------------------------------|
E|-----------------------------------|-----------------------------------|

                                                    ~~~~~~~~~~~~
e|-----------------------------------|-----------------------------------|
B|-----------------7-----------------|-------------------------------8---|
G|--------5--------7-------5---------|---7(9)------(9)-------------------|
D|---/7-------7--------7--------7----|-----------------------------------|
A|-----------------------------------|-----------------------------------|
E|-----------------------------------|-----------------------------------|

e|--5--------------------------------|------------------------------------|
B|------8-5----5-8-5---5-8-5---5-8-5-|----5--8--5-----5--8-----5----------|
G|-----------7-------7-------7-------|--7----------7--------7-------7(9)--|
D|-----------------------------------|------------------------------------|
A|-----------------------------------|------------------------------------|
E|-----------------------------------|------------------------------------|

                                           ~~~~~~
e|----------5-------------------------------------|
B|--7(9)-------8--5-----5-------------------------|
G|-------------------7------7--5-----7-----5------|
D|--------------------------------7---------------|
A|------------------------------------------------|
E|------------------------------------------------|

                     ~~~~~~~~~~~~~~~
e|------------------------------------------|-------------------------------|
B|---------------20(22)---------------20(22)|-----20(22)------------20(22)--|
G|-----\2/----------------------------------|-------------------------------|
D|------------------------------------------|-------------------------------|
A|------------------------------------------|-------------------------------|
E|------------------------------------------|-------------------------------|
|------------------------------------------|-------------------------------|

e|----17-------------------17-----------------17--------------17------------|
B|-------20--17-20(22)--------20--17-20(22)------20-17-20(22)----20-17-20(22)
G|--------------------------------------------------------------------------|
D|--------------------------------------------------------------------------|
A|--------------------------------------------------------------------------|
E|--------------------------------------------------------------------------|

                                       this bar 2x    this bar 6x
e|---------------------|--17-20/17---|17---17--------|-17----------|
B|---20(22)------------|----------20-|-20---20/17----|-17/20/17----|
G|---------------------|-------------|------------19-|----------19-|
D|---------------------|-------------|---------------|-------------|
A|---------------------|-------------|---------------|-------------|
E|---------------------|-------------|---------------|-------------|

e|---17\\\\-------------|--------------------------------------------|
B|---17\\\\-------------|--------------------------------------------|
G|----------------x/----|--x/---0------------------------------------|
D|----------------------|-----------4(5)----4(5)---------------------|
A|----------------------|---------------------------------0------0---|
E|----------------------|--------------------------------------------|

          ~~~~~~~~~~~~~~~~~~~       This Bar 2x
e|----------------------------|   e|-------------------|
B|------20(22)-(22)-(22)-(22)-|   B|--14---14----14----|
G|----------------------------|   G|--14---14----14----|
D|----------------------------|   D|--14---14----14----|
A|---0------------------------|   A|---0----0-----0----|
E|----------------------------|   E|-------------------|

                   ~~~~~~~~
e|--------------------------------|
B|--14----------------------------|
G|--14----------------------5---7-|
D|--14-------------7--------------|
A|---0--------0-------------------|
E|--------------------------------|

 play bar 3x
e|--------------------|   e|----------5---------------------------------|
B|------5--8--8/5-----|   B|-5--8\5---------5--8/5-7/5------------------|
G|-7(9)-----------7(9)|   G|--------7------------------8/5-7/5---7------|
D|--------------------|   D|-----------------------------------7----7/5-|
A|--------------------|   A|--------------------------------------------|
E|--------------------|   E|--------------------------------------------|

e|---------------------------------|-----------------------------------|
B|---------------------------------|--2--------------------------------|
G|---------------------------------|--2--------------------------------|
D|--7/5-----7----------------------|--2--------------------------------|
A|-------7-----7/5/3---------------|--0--------------------------------|
E|---------------------------------|-----------------------------------|



************************************

| (n)  Bend
| /    Slide up
| \    Slide down
| ~    Vibrato 
************************************
Suggest correction
comments
print report bad tab
38 comments total. Showing first comments.
-1 reply
Rockn_Clay 131 Aug 29, 2004 08:00 PM

the intro bit, angus uses single notes,
E|--------------
B|--------------
G|--------------
D|--------------
A|-0-3-0-5-0-3-0
E|--------------

just like that mAte

+2 reply
jonesy22 10 Mar 02, 2005 07:00 PM

no rockn_clay, this man is right. only uses single notes during the verse (0-3-0-5-0-3-0), however malcolm young uses the power chord technique all the way through to add beef to the song>

-1 reply
mikedeit 1,163 May 13, 2005 08:00 PM

Wow. Way to redeem yerself from that Sink the Pink tab.

Awesome Whole Lot Of Rosie tab man.

guest
You may want to rate the tab now too:
select rating
Wanna post a correction for this tab? Suggest correction