Oops, an error
Loading. Please wait.
We have an official You Shook Me All Night Long tab made by UG professional guitarists. Check out the tab »
×
by AC/DC
43,923 views 114 this week
3 commentsread comments
1 2 3 4 5
x 12
add to favorites
×
Save as Personal and add changes to this tab that will be seen only by you. Learn more ›
×
You can save this tab as Personal to edit and correct it or add notes. All changes will be seen only by you. Learn more »
launch autoscroll
font size
0
reset
how to read this tab
guitar tuner
backing track
0:00
0:00
edit
Autoscroll
slow
fast
+/-
esc
set tempo
stop
[Solo]

e|------------3------------------------------------------------------|
B|--------------3-6--------------------------------------------------|
G|---5b7------------5b7b6---3------------------------3b4---------3b4-|
D|----------------------------5-----5-3-------------------5-2-5------|
A|------------------------------5v------5-3v-----1-------------------|
E|-------------------------------------------------3-----------------|

e|------------------------------10---------------------------------|
B|-----6-6v------8-8v----8-10b12----12b10-8-----11b13—11--8---8\---|
G|--/7---------/9------9------------------------------------9------|
D|-----------------------------------------------------------------|
A|-----------------------------------------------------------------|
E|-----------------------------------------------------------------|

e|---------------------------------------------------------------------------------------|
B|--18b20v-18b20-18-----------------------------18-------18-----------------17-15----15\-|
G|-------------------17b19b17-15----17-15-17b19----17b19----17b19b17--15----17-15-17-15\-|
D|-------------------------------17--------------------------------------17-------17-----|
A|---------------------------------------------------------------------------------------|
E|---------------------------------------------------------------------------------------|

e|---18b20—18b19v—17b19b17-15-17-----15----------|
B|-------------------------------17------18b20---|
G|-----------------------------------------------|
D|-----------------------------------------------|
A|-----------------------------------------------|
E|-----------------------------------------------|

e|--15-----------------------------15----15-—17b18--15\---3--|
B|-----18--------------------15h17----17------------------3--|
G|--------17b19b17-15—-17b19------------------------------0--|
D|--------------------------------------------------------0--|
A|-----------------------------------------------------------|
E|------------------------------------------------------3----|



************************************
| v  Vibrato 
| h  Hammer-on
| b  Bend
| /  Slide up 
| \  Slide down
************************************

            
            
Suggest correction
Creating personal tab
Creating personal tab
You can edit any tab online and save it as your Personal.

You can edit, replace or remove any tab part or add personal notes – all changes will be seen only by you.

Personal tabs can be accessed anytime from any device, even offline.
Learn more »
comments
print report bad tab
3 comments total.
0 reply
kkkk 21 Dec 24, 2009 06:39 AM

wow! amazing! are you angus or someone?!?!

0 reply
daniel dickey 10 Feb 10, 2010 07:06 PM

dude incredible

+2 reply
Phycopath09 664 Apr 02, 2010 06:32 AM

amazing tab but you messed up the strings it should be B second and then G third but good job

guest
Wanna post a correction for this tab? Suggest correction