Oops, an error
Loading. Please wait.
We have an official You Shook Me All Night Long tab made by UG professional guitarists. Check out the tab »
×
by AC/DC
704 views 3 this week
1 commentread comment
1 2 3 4 5
1 last vote to show rating
add to favorites
×
Save as Personal and add changes to this tab that will be seen only by you. Learn more ›
×
You can save this tab as Personal to edit and correct it or add notes. All changes will be seen only by you. Learn more »
launch autoscroll
font size
0
reset
guitar tuner
backing track
0:00
0:00
edit
Autoscroll
slow
fast
+/-
esc
set tempo
stop
Author
-------------------------------------------------------------------------------
                       You shook me all night long - ACDC
-------------------------------------------------------------------------------
Tabbed by: Nina 

Tuning:G,D,A,E

Intro (x5) (normally only guitar but it sounds great if u play it thou)
G|-------------------------|
D|---------------55---5----|
A|---33---3---55----5---5--|
E|-3----3---3--------------|

                (officially bass starts playing here)
G|------------|------------------|  |--------------------------------|
D|------------|------------------|  |--------------------------------|
A|---33---3---|-5555555555555555-|  |------0-2-3---2--5--0-2-3---2---| -> (x2)
E|-3----3---3-|------------------|  |-3----------------------------3-|

Intro (x3)

G|------------------------------|
D|------------------------------|
A|---33---3----5555555555555555-|
E|-3----3---3-------------------|

Chorus (x3)
G|-------------------------------------|
D|-------------------------------------|
A|------0-2-3---2--5----0-2-3---2-22---|
E|-3----------------------------------3|

G|--------------------------------------------------|
D|--------------------------------------------------|
A|------0-2-3---2--55555555555555555555555555555555-|
E|-3------------------------------------------------|

Guitar Solo                          play that part x3
G|----------------------------|    |-------------------------------------|
D|----------------------------|    |-------------------------------------|
A|---0-2-3x-2x-5x-0-2-3x-2x---| -> |-0-2-3---2--5-5555-0-2-3-33-2-222----|
E|-3x-----------------------3x|    |----------------------------------33-|

Chorus (x3)

G|---------------------------------------------------------------------------|
D|---------------------------------------------------------------------------|
A|-0-2-3---2--5-5555-0-2-3---2--5-5555-0-2-3---2--5-555555555555555555555555x|
E|---------------------------------------------------------------------------|


| /  slide up
| \  slide down
| h  hammer-on
| p  pull-off
| ~  vibrato
| +  harmonic
| x  Mute note
===============================================================================

            
            
Suggest correction
Creating personal tab
Creating personal tab
You can edit any tab online and save it as your Personal.

You can edit, replace or remove any tab part or add personal notes – all changes will be seen only by you.

Personal tabs can be accessed anytime from any device, even offline.
Learn more »
Give kudos to tab author, rate the tab!
1 2 3 4 5
comments
print report bad tab
1 comment total.
0 reply
Maniac1075 2,322 Jul 13, 2015 06:47 AM

Lack of accuracy. I really wish people would learn to tab properly. And your chorus and second part of the verse aren't right.

guest
You may want to rate the tab now too:
select rating
Wanna post a correction for this tab? Suggest correction