Oops, an error
Loading. Please wait.

You Shook Me All Night Long Tab

version 4
53,931 views 12 this week
14 commentsread comments
1 2 3 4 5
worth learning
x 26
add to favorites
launch autoscroll
font size
0
reset
how to read this tab
guitar tuner
Tab Pro tools
  • play this tab
  • loop segment
  • change instrument
  • show fretboard
  • metronome
×
Best way to learn
"You Shook Me All Night Long"
Autoscroll
slow
fast
+/-
esc
set tempo
stop
Contributor
Artist:  AC/DC
Album:  Back in Black
Song:  You Shook Me All Night Long
Tabbed By:  Adam Hulowski (Professor-x10)
Date:  Monday, February 03, 2003

This is my first tab, please leave comments and tell me what you think.
If you have any questions, e-mail me at professorx10@softhome.net or talk
to me on msn with that e-mail.

LEGEND
======
b --> Bend
r --> Release bend
br --> Bend and Release
p --> Pull off
h --> Hammer on


INTRO
E|--3--5--3--3-----3--------2-----------------------
B|--3--3--------3-----3--3--3-----------------------
G|--------------------------2-----------------------
D|--------------------------0----3p0---3h4-2-3p0----
A|--------------------------------------------------
E|--------------------------------------------------

E|--3--5--3--3-----3--------2----|
B|--3--3--------3-----3--3--3----|
G|--------------------------2----|
D|--------------------------0----|
A|-------------------------------|
E|-------------------------------|



VERSE
E|------------------------------------------|
B|------------------------------------------|
G|-------5--5-----5-----7----------7-----7--|
D|--5----5--5--5--5--5--7----5--5--7--5--7--|  x4 Hold last note
A|--5----7--7--5--7--5--5----5--5--5--5--5--      2nd time.
E|--7----------7-----7-------7--7-----7-----|


CHORUS
E|-----3----------------------------------------------------------|
B|-----3-------------3--------3--------3-----------3--------3-----|
G|----------------------0--------0-----2--------------0--------0--|
D|----------------------------------0--0--------------------------|  x2
A|-----2----0--2--3--------2-----------0--0--2--3--------2--------|
E|--3--3----------------------------------------------------------|


VERUS x4


CHORUS x4 (Hold last note 4th time)


SOLO
E|------3------------------------------------------------------------
B|---------3--6--3---------------------------------------------------
G|--5b--------------5r--3-----------------------------3-----------3--
D|-------------------------5-----5--3-----------5--3-----5--3--5-----
A|----------------------------5--------5--3--------------------------
E|-------------------------------------------------------------------


E|------------------------------------------10------------
B|-------6--6---------8--8---------8---10b------10r--8----
G|--5p7----------7p9----------7p9-------------------------
D|--------------------------------------------------------
A|--------------------------------------------------------
E|--------------------------------------------------------


E|-------------------------------------------------
B|--11b--11--8-------------18b--18r--15------------
G|--------------10--10b------------------17br------
D|---------------------------------------------17--
A|-------------------------------------------------
E|-------------------------------------------------


E|-----------------------------------------------
B|--17--15-------18-------18-------18------------
G|--17--15--17b------17b------17b------17br------
D|-------------------------------------------17--
A|-----------------------------------------------
E|-----------------------------------------------


E|------------------------------------------------
B|--18b--18--15--17------17-----------------------
G|-------------------17------18b----18------------
D|--------------------------------------17br--15--
A|------------------------------------------------
E|------------------------------------------------


E|---------15------15------17br--15--|
B|--15p17------17------17------------|
G|-----------------------------------|
D|-----------------------------------|
A|-----------------------------------|
E|-----------------------------------|


CHORUS  x4

The last couple riffs of the song are just variations of the chorus,
mess around and you'll come up with it in no time.


OUTRO
E|----------|
B|-------8--|
G|--/7---7--|
D|-------9--|
A|----------|
E|----------|
comments
print report bad tab
14 comments total. Showing first comments.
0 reply
Epi_47 wrote on March 20 2003, 12:00 am

good first tab!

0 reply
Young&Rhoads wrote on May 6 2003, 12:00 am

Not so good, solo looks off, chorus is off, but hey it's not too bad man.

0 reply
afifury69 wrote on February 10 2004, 12:00 am

off on the verse dude

I want to post or [tab]
guest
You may want to rate the tab now too:
select rating
Please do not post tabs as comments. Select "correction" instead!