Oops, an error
Loading. Please wait.

Arrogance Is My Middle Name Said Will Davies Arrogantly tab

13 views 1 this week
no commentswrite comment
1 2 3 4 5
3 more votes to show rating
add to favorites
×
Save as Personal and add changes to this tab that will be seen only by you. Learn more ›
×
You can save this tab as Personal to edit and correct it or add notes. All changes will be seen only by you. Learn more »
launch autoscroll
font size
0
reset
how to read this tab
guitar tuner
edit
Autoscroll
slow
fast
+/-
esc
set tempo
stop
e|---------------------|      e|--------------------------|
B|---------------------|      B|--------------------------|
G|--16h18------14h16---|      G|--16h18------14h16--------|
D|--------19-----------|      D|--------19---------16h17--|
A|---------------------|  3x  A|--------------------------|  1x
E|---------------------|      E|--------------------------|

e|---------------------------|      e|---------------------------|
B|---------------------------|      B|---------------------------|
G|--14----------14h16-16h18--|      G|--14----------14h16--------|
D|------17--17---------------|      D|------17--17--------16h17--|
A|---------------------------|  3x  A|---------------------------|  1x  
E|---------------------------|      E|---------------------------|

you'll go so far just to take a step backwards
you'll go so far just to take a step backwards
i'll drive my car just to move you around (step back step back step back step back)
last thing i want is to slow you down (step back step back step back step back)

e|---------------------------|
B|---------------------------|
G|---------------------------|
D|--------12h14--------------|
A|--12h14-------12h14--------|  4x
E|--------------------12h14--|

e|------------------------------------|
B|------------------------------------|
G|------------------------------------|
D|--------12h14-----------------------|
A|--12h14-------12h14-----------------|  4x
E|--------------------12h14-14-14-14--|

get out get out get out get out
get out get out get out get out
get out get out get out get out
get out get out get out get out

e|-------------------|
B|-------------------|
G|-------------------|
D|-------------------|
A|--9-9-7-7-5-5-0----|  8x
E|----------------2--|
Suggest correction
Creating personal tab
Creating personal tab
You can edit any tab online and save it as your Personal.

You can edit, replace or remove any tab part or add personal notes – all changes will be seen only by you.

Personal tabs can be accessed anytime from any device, even offline.
Learn more »
Give kudos to tab author, rate the tab!
1 2 3 4 5
comments
print report bad tab
guest
You may want to rate the tab now too:
select rating
Wanna post a correction for this tab? Suggest correction