Oops, an error
Loading. Please wait.

The Motion tab

version 1
version 1

Whole song

4,885 views 1 this week
1 commentread comment
1 2 3 4 5
x 5
add to favorites
×
Save as Personal and add changes to this tab that will be seen only by you. Learn more ›
×
You can save this tab as Personal to edit and correct it or add notes. All changes will be seen only by you. Learn more »
launch autoscroll
font size
0
reset
how to read this tab
guitar tuner
edit
Autoscroll
slow
fast
+/-
esc
set tempo
stop
Tabbed by:Laroccotx

Tuning: Standard


       Intro/Verse
e|-------------------------------------------------------------------------------------|
B|-------------------------------------------------------------------------------------|
G|----6--6--6--6-----------------------------------------------------------------------|
D|----8--8--8--8-----------------------------------------------------------------------|
A|----9\-8\-7\-6-----------------------------------------------------------------------|
E|----x--x--x--x-----------------------------------------------------------------------|

PreChorus: And oh, oh, oh
e|----------------------------------------------------------------------------------|
B|----------------------------------------------------------------------------------|
G|---6------------------------------------------------------------------------------|
D|---8------------------------------------------------------------------------------|
A|---x------------------------------------------------------------------------------|
E|---9------------------------------------------------------------------------------|

Chrous: And all the love...
e|----------------------------------------------------------------------------------|
B|----------------------------------------------------------------------------------|
G|---6--6--6------------------------------------------------------------------------|
D|---8--8--8------------------------------------------------------------------------|
A|---9--x--x------------------------------------------------------------------------|
E|---x--9--7------------------------------------------------------------------------|

During Ace's high pitched: Again

e|-----------------------|
B|-----------------------|
G|---6--6----------------| (slow down struming)
D|---8--8----------------|
A|---9--x----------------|
E|---x--9----------------|


Picking Part: I hold my breath inside...
e|----------------------------------------------------------------|
B|----------------------------------------------------------------|
G|-----6---6---6---6---6---6---6---6------------------------------|
D|-----8---8---8---8---8---8---8---8------------------------------|
A|----------------------------------------------------------------|
E|---7---7---7---7---9---9---9---9--------------------------------|

End on:
e|-----------|
B|-----------|
G|---6~ -----|
D|---8~ -----|
A|----  -----|
E|---7~ -----|

| /  slide up
| \  slide down
| h  hammer-on
| p  pull-off
| ~  vibrato
| +  harmonic
| x  Mute note

            
            
Suggest correction
Creating personal tab
Creating personal tab
You can edit any tab online and save it as your Personal.

You can edit, replace or remove any tab part or add personal notes – all changes will be seen only by you.

Personal tabs can be accessed anytime from any device, even offline.
Learn more »
comments
print report bad tab
1 comment total.
0 reply
cidsurvive 31 Jan 03, 2013 03:48 AM

great tab, great song.

guest
Wanna post a correction for this tab? Suggest correction