Oops, an error
Loading. Please wait.

Do Ya Tab

version 1
version 1

Whole song

Interactive

5,425 views 9 this week
2 commentsread comments
1 2 3 4 5
please rate
add to favorites
launch autoscroll
font size
0
reset
how to read this tab
guitar tuner
Autoscroll
slow
fast
+/-
esc
set tempo
stop
Help us to improve Ultimate-Guitar.com Take our survey!
×
Do Ya
-----
by Ace Frehley
from the album Trouble Walkin'
Tabbed by James Lee (jameslee@leland.stanford.edu)

Tune down 1/2 step

/ = slide up
\ = slide down
b = bend (the number of parentheses is the number of steps)
pb = pre-bend
r = release bend
^ = legato (hammer-ons and pull-offs)

Intro:

D5 A5 G5 <-- play 4 times

After the 1st and 3rd repeat, play the following with a slide:

------|
------|
-12\--
-12\--
------|
------|

After the 4th repeat, play this:

--------------------------------------------------|
--------------------------------------------------|
-/12---11-12-11-12-11-12-11-12-11-12-11-12-11-12--|
--------------------------------------------------|
--------------------------------------------------|
--------------------------------------------------|

Verse:

       D5      A5             G5
  Well in this life I've seen everything
            A5
  I can see woman

Use same chord pattern unless otherwise noted:

  I've seen lovers flying thru the air
  Hand in hand
  I've seen babies dancing in the midnight sun
  And I've seen dreams come from the heavenly skies above

  I've seen old men crying
  At their own grave sites and
  I've seen pigs all sittin'
  G5
  Watching picture slides
  G5        * G5
  But I ain't never seen nothin' like you

* = play this with a slide: ------|
                            ------|
                            -12\--
                            -12\--
                            ------|
                            ------|

  D5 A5 G5 A5

Chorus:

  D5          A5      G5     A5
  Do ya do ya want my love  woman

Use same chord pattern unless otherwise noted:

  Do ya do ya want my face
  I need it
  Do ya do ya want my mind
  I'm sayin'
  Do ya do ya want my love

Verse:

  Well I've heard the crowd singin' outta tune
  As they sang Auld Lang Syne
  By the light of the moon
  And I heard preachers banging
  On their drums
  And I heard police playing with their guns
  But I ain't never heard nothin' like you

Bridge:

  Gtr. 1 (clean) (with variations on repeat)
|---------------------------------------------------------------|
|-------7-----7--------10----10--------12----12---------19------|
|-----7---7----------10--10----------12--12-----------19--19----|
|---7-------7------10------10------12------12-------19------19--|
|-5------------5/8-------------8/10------------10/17------------|
|---------------------------------------------------------------|
|
| Gtr. 2 (dirty)
|---------------------------------------------------------------|
|-3--------------6---------------8----------------15------------|
|-5b(1)----------8b(1)-----------10b(1)-----------17b(1)--------|
|---------------------------------------------------------------|
|---------------------------------------------------------------|
|---------------------------------------------------------------|

  D          Dsus4 D       Asus4       A
  In the country where the sky touches down
  Gsus4                    G
  On the field she lay her down to rest
  (play the arpeggiated figure)
  In the waterside

Use same chord pattern:

   They come a-runnin' just to get a look
   Just to feel, to touch her long black hair
   They don't give a damn

After another chorus, play this fill w/ a slide:

-/15-15--15-15--15-15--15-15--15--|
-/15-15--15-15--15-15--15-15--15--|
----------------------------------|
----------------------------------|
----------------------------------|
----------------------------------|
  (I don't think this is actually right)

Verse:

  I think you know what I'm tryin' to say woman
  That is I'd like to save you for a rainy day
  I've seen enough of this world to know that I've gotta
  Gotta get it all, get it all to (???)

After the last chorus, play these outro chords:

 C5 C5/B(?) Bb5 G5
 C5 Bb5(?) G5

Outro solo (approximation):

-----------------------------------------------------------------------|
-------------------------------------------------18b(1)-20b(1)-18b(1)--|
-17b(1)r^15-17--17-15-----------15-17b(1)r^15--15----------------------|
----------------------17-17--17--------------17------------------------|
-----------------------------------------------------------------------|
-----------------------------------------------------------------------|
-----------------------------------------------------------------------|

----------15----------18--------------18-------------------------------|
-------15----15-18b(1)---r18-15-------18-----------------------18b(1)--|
-17b(1)-------------------------17b(1)---r17-17pb(1)r-15^17^15---------|
-----------------------------------------------------------------------|
-----------------------------------------------------------------------|
-----------------------------------------------------------------------|
Suggest correction
What's this?
You can suggest a correction to this tab. Community and Mods will review your correction and vote to approve or reject it.
comments
We did not receive enough feedback on this tab! Please rate:
print report bad tab
1 2 3 4 5
2 comments total.
0 reply
[travis] 4,682 wrote on October 29 2009, 03:00 am

.......................

0 reply
dyllan93 107 wrote on February 8 2010, 10:54 pm

it's funny: when it's called "tabs" you're not supposed to use chords

guest
You may want to rate the tab now too:
select rating
Please do not post tabs as comments. Select "correction" instead!