Oops, an error
Loading. Please wait.

Snow Blind Bass Tab

version 1
version 1

Whole song

Interactive

1,238 views 1 this week
no commentswrite comment
1 2 3 4 5
3 more votes to show rating
add to favorites
launch autoscroll
font size
0
reset
guitar tuner
Autoscroll
slow
fast
+/-
esc
set tempo
stop
Help us to improve Ultimate-Guitar.com Take our survey!
×
Author
Difficulty
novice
Tuned down 1/2-step

Comments: Again it's Ace on the bass. For some reason he chooses not to
play the first A, compare Rhy. Fig 1a with 1b and 1c, during the instru-
ental parts and the first round of each chorus. During the guitar solo,
it's all octaves; something he uses freqently.


Key:
/    = slide up
\    = slide down
b    = bend (whole step)
b^   = bend (1/2 step)
b^^  = bend (1 1/2 steps)
pb   = pre-bend
r    = release-bend
t    = tap with righthand finger
h    = hammer-on
p    = pull-off
~    = Vibrato
*    = Natural Harmonic
#(#) = Trill
**   = Artificial Harmonic
x    = Dead notes (no pitch)
P.M. = Palm mute (- -> underneath indicates which notes)
(\)  = Dive w\bar
(/)  = Release w\bar
Tp   = Tap w\plectrum


Rhythm Fig. 1a
                                                       
Gb|---------------------------------------------------|
Db|---------------------------------------------------|
Ab|---0--0-3-----0--0-2-----0--0-1-----0--0-12\-------|
Eb|---------------------------------------------------|


Rhythm Fig. 1b
                                                       
Gb|---------------------------------------------------|
Db|---------------------------------------------------|
Ab|--0-0--0-3----0-0--0-2----0-0--0-1----0-0--0-12\---|
Eb|---------------------------------------------------|



Rhythm Fig. 1c
                                                       
Gb|---------------------------------------------------|
Db|---------------------------------------------------|
Ab|--0-0--0-3----0-0--0-2----0-0--0-1----0-0--0-12----|
Eb|---------------------------------------------------|




Rhythm Fig. 2
                                            
Gb|---------------------------------------------------|
Db|---------------------------------------------------|
Ab|--0--0--------3--3---------------------------------|
Eb|--------x-3----------------------------------------|


                                              
Gb|---------------------------------------------------|
Db|---------------------------------------------------|
Ab|--0--0--0------------------------------------------|
Eb|----------3---1--1----------------1/---3-----------|


                                            
Gb|---------------------------------------------------|
Db|---------------------------------------------------|
Ab|--0--0--------3--3---------------------------------|
Eb|--------x-3----------------------------------------|


                                                  
Gb|---------------------------------------------------|
Db|---------------------------------------------------|
Ab|--0--0--0------------------------------------------|
Eb|----------3---1--1-----x-x--3--------3----4--------|




Rhythm Fig. 3
                                               
Gb|---------------------------------------------------|
Db|-----------------7----------7----------7-----------|
Ab|--0------0----0----------0-------0--0--------------|
Eb|---------------------------------------------------|


                                                
Gb|---------------------------------------------------|
Db|-----------------7---------7--7--7--7--7--7--------|
Ab|--0------0----0------------------------------------|
Eb|---------------------------------------------------|






Rhythm Fig. 4
                                               
Gb|-----------------9----------9----------9-----------|
Db|---------------------------------------------------|
Ab|--7------7----7----------7-------7--7--------------|
Eb|---------------------------------------------------|


                                                
Gb|-----------------9---------9--9--9--9--9--9--------|
Db|---------------------------------------------------|
Ab|--7------7----7------------------------------------|
Eb|---------------------------------------------------|



Rhythm Fig. 5
                                                
Gb|-------9----------9-------------9----9-------------|
Db|---------------------------------------------------|
Ab|--7-------7----7--------7--7-----------------------|
Eb|----------------------------------------0----------|



Riff 1
                                            
Gb|---------------------------------------------------|
Db|---------------------------------------------------|
Ab|--15\----------------------------------------------|
Eb|---------------------------------------------------|






SNOW BLIND
Frehley

[Rhy. Fig 1a] (4x)

[Rhy. Fig 2]
It's so hard to feel right baby
When I'm travelin' around and you're far behind
Guy, I wish I could see my lady
Girl, I hope you don't mind, 'cos

[Rhy. Fig 1a] 
I'm snowblind, I can't see a thing
[Rhy. Fig 1b] (3x)
I'm snowblind, I don't wanna sing
I'm snowblind, need a familiar face
I'm snowblind, think I'm lost in space

[Rhy. Fig 2]
Lookin' out my window, sometimes I wonder
Am I ever gonna get to where I'm gonna go home
Maybe tomorrow, maybe next summer
Girl, I just don't know, 'cos

[Rhy. Fig 1a] 
I'm snowblind, I can't see a thing
[Rhy. Fig 1b] (2x)
I'm snowblind, I don't wanna sing
I'm snowblind, need a familiar face
[Rhy. Fig 1c]
I'm snowblind, think I'm lost in space

[Rhy. Fig 3] (2x)
[Rhy. Fig 4] (2x)
[Rhy. Fig 3] (2x)
[Rhy. Fig 4] (2x)
[Rhy. Fig 5]

[Rhy. Fig 1a] (4x)

[Rhy. Fig 2]
Movin' around, I get in trouble
when I'm feelin' so low and out of my mind
Babe, I don't wanna burst your bubble
Girl, you know the reason why, 'cos

[Rhy. Fig 1a]
I'm snowblind, I can't see a thing
[Rhy. Fig 1b] (3x)
I'm snowblind, I don't wanna sing
I'm snowblind, need a familiar face
I'm snowblind, think I'm lost in space 

[Rhy. Fig 1b]
[Rhy. Fig 1c]
Suggest correction
Give kudos to tab author, rate the tab!
1 2 3 4 5
comments
print report bad tab
guest
You may want to rate the tab now too:
select rating
Wanna post a correction for this tab? Suggest correction