Oops, an error
Loading. Please wait.

Out To Sea Tab

117 views 1 this week
no commentswrite comment
1 2 3 4 5
please rate
add to favorites
launch autoscroll
font size
0
reset
how to read this tab
guitar tuner
Autoscroll
slow
fast
+/-
esc
set tempo
stop
Help us to improve Ultimate-Guitar.com Take our survey!
×
Artist: Ace Troubleshooter
Album: The Madness of the Crowds
Song: Out To Sea

Enjoy :)

Intro

Guitar 1
e|--3-3--2h3p2-------7-7-7/2-2h3--------3-3--2h3p2-2---------|
B|--------------3--------------------------------------------|
G|-----------------------------------------------------------|

e|--3-3--2h3p2-------7-7-7/2-2h3------3-3--2h3p2-------------|
B|--------------3---------------------------------3--1-1-3---|
G|-----------------------------------------------------------|

Guitar 2 x2
e|------------------------------------------------|
B|------------------------------------------------|
G|-----7-/-9-/-5-5-/-4------------- 7-/-9-/-5-/-5-|
D|--5--7-/-9-/-5-5-/-4--7-/-5----5--7-/-9-/-5-/-5-|
A|--5--5-/-7-/-3-3-/-2--7-/-5----5--5-/-7-/-3-/-7-|
E|--3-------------------5-/-3----3----------------|

Verse
e|--------------------------------------------|
B|--------------------------------------------|
G|---------------------7-7-7-7-7----5-5-5-5-5-|
D|--------5-5-5-5-5----7-7-7-7-7----5-5-5-5-5-|
A|--------5-5-5-5-5----5-5-5-5-5----3-3-3-3-3-|
E|--------3-3-3-3-3---------------------------|
   P.M._______________________________________

e|--------------------------------------------|
B|--------------------------------------------|
G|---------------------4-4-4-4-4----5-5-5-5-5-|
D|--------5-5-5-5-5----4-4-4-4-4----5-5-5-5-5-|
A|--------5-5-5-5-5----2-2-2-2-2----3-3-3-3-3-|
E|--------3-3-3-3-3---------------------------|
   P.M._______________________________________

Pre chorus
Guitar 1
e|-------------------------------------|
B|-2-2-2-2-2-2-2-2--3-3-3-3-3-3-3-5p3--|
G|--2-2-2-2-2-2-2-2--2-2-2-2-2-2-2-----|

e|--------------------------------------|
B|-2-2-2-2-2-2-2-2--3-3-3-3-3-3-3-3-----|
G|--2-2-2-2-2-2-2-2--2-2-2-2-2-2-2------|

Guitar 2 x2
e|--------------------------------------|
B|--------------------------------------|
G|--------------9-9-9-9-9---7-7-7-7-7---|
D|--7-7-7-7-7---9-9-9-9-9---7-7-7-7-7---|
A|--7-7-7-7-7---7-7-7-7-7---5-5-5-5-5---|
E|--5-5-5-5-5---------------------------|

Chorus x2
e|-------------x-x-x-x-x-------------------------------------|
B|-------------x-x-x-x-x-------------------------------------|
G|-------------x-x-x-x-x---7-7-7-7-7-/-5-5-5-5-5-/-7-7-7-7-7-|
D|--5-5-5-5-5--x-x-x-x-x---7-7-7-7-7-/-5-5-5-5-5-/-7-7-7-7-7-|
A|--5-5-5-5-5--x-x-x-x-x---5-5-5-5-5-/-3-3-3-3-3-/-5-5-5-5-5-|
E|--3-3-3-3-3--x-x-x-x-x-------------------------------------|
                  /\
                  mute for scratch sound

Guitar 1
e|--3-3--2h3p2-------7-7-7/2-2h3--------3-3--2h3p2-2----|
B|--------------3---------------------------------------|
G|------------------------------------------------------|

Guitar 2
e|------------------------------------------------|
B|------------------------------------------------|
G|-----7-/-9-/-5-5-/-4------------- 7-/-9-/-5-/-5-|
D|--5--7-/-9-/-5-5-/-4--7-/-5----5--7-/-9-/-5-/-5-|
A|--5--5-/-7-/-3-3-/-2--7-/-5----5--5-/-7-/-3-/-7-|
E|--3-------------------5-/-3----3----------------|

Repeat Verse
Repeat Pre Chorus(with Guitar 1 change)

Guitar 1(pre chorus change)
e|-------------------------------------|
B|-2-2-2-2-2-2-2-2--3-3-3-3-3-3-3-5p3--|
G|--2-2-2-2-2-2-2-2--2-2-2-2-2-2-2-----|

e|-----------------------------------|
B|-2-2-2-2-2-2-2-2--3-3-5-7-9-10-----|
G|--2-2-2-2-2-2-2-2--2-2-4-6-8--9----|

Repeat Chorus

Bridge
e|-------------------------------------------------------|
B|-------------------------------------------------------|
G|-4-4-4-4-4-/-9-9-9-/-7-7-7-/-5-5-5-5-----------7-7-7-7-|
D|-4-4-4-4-4-/-9-9-9-/-7-7-7-/-5-5-5-5--5-5-5-5--7-7-7-7-|
A|-2-2-2-2-2-/-7-7-7-/-5-5-5-/-3-3-3-3--5-5-5-5--5-5-5-5-|
E|--------------------------------------3-3-3-3----------|

e|-------------------------------------------------|P
B|-------------------------------------------------|A
G|-4-4-4-4-4-/-9-9-9-/-7-7-7-/-5-5-5-5-5-5-5-5-----|U
D|-4-4-4-4-4-/-9-9-9-/-7-7-7-/-5-5-5-5-5-5-5-5-----|S
A|-2-2-2-2-2-/-7-7-7-/-5-5-5-/-3-3-3-3-3-3-3-3-----|E
E|-------------------------------------------------|

Chorus x3
Intro x2

End on
D|-5-    e|-3-|
A|-5- or B|---|
E|-3-    G|---|

Good Luck with the stuff at the very end. I didn't want to tab that since
it really isn't "in the song"
Suggest correction
Give kudos to tab author, rate the tab!
1 2 3 4 5
comments
print report bad tab
guest
You may want to rate the tab now too:
select rating
Please do not post tabs as comments. Select "correction" instead!