Oops, an error
Loading. Please wait.

000 Am Tab

by ACID
720 views 3 this week
no commentswrite comment
1 2 3 4 5
please rate
add to favorites
launch autoscroll
font size
0
reset
how to read this tab
guitar tuner
Tab Pro tools
  • play this tab
  • loop segment
  • change instrument
  • show fretboard
  • metronome
×
Best way to learn
"000 Am"
Autoscroll
slow
fast
+/-
esc
set tempo
stop
Contributor
Difficulty
intermediate
-------------------------------------------------------------------------------
                             0:00 A.M By ACID
-------------------------------------------------------------------------------
Tabbed by:Dmdimpulse
E-mail:blink270@yahoo.com

Tuning:This song is in B standard but i play and tab it in E standard hope you like

e|----------------------------------------------------------------------------|
B|----------------------------------------------------------------------------|
G|----3H5-----3H5-----3H5-----3H5----5P3--------------------------------------|
D|--3-------3-------3------3-------3-----6-5----------------------------------|
A|----------------------------------------------------------------------------|
E|----------------------------------------------------------------------------|

e|--------------------------------------------------------------------------|
B|--------------------------------------------------------------------------|
G|--6-6-6-6-6-6-6-6----13-13-12-12---8-8-8-8-8----17-17-15-15-12-12-12-12-12|
D|--6-6-6-6-6-6-6-6---------------------------DUEL--------------------------|
A|--4-4-4-4-4-4-4-4----11-11-10-12---6-6-6-6-6----15-15-13-13-10-10-10-10-10|
E|--------------------------------------------------------------------------|

e|--------------------------------------------------------------------------|
B|--------------------------------------------------------------------------|
G|--6-6-6-6-6-6-6-6-----------------8-8-8-8---6-6-6-6-6-6-6-6---------------|
D|--6-6-6-6-6-6-6-6---3-3-3-3-3-3---8-8-8-8---6-6-6-6-6-6-6-6---------------|
A|--4-4-4-4-4-4-4-4---3-3-3-3-3-3---6-6-6-6---4-4-4-4-4-4-4-4---------------|
E|--------------------1-1-1-1-1-1-------------------------------------------|

e|----------------------------------------------------------------------------|
B|----------------------------------------------------------------------------|
G|---13-13-12-12---8-8-8-8-8----17-17-15-15-12-12-12-12-12--------------------|
D|--------------------------DUEL----------------------------------------------|
A|---11-11-10-12---6-6-6-6-6----15-15-13-13-10-10-10-10-10--------------------|
E|----------------------------------------------------------------------------|

e|----------------------------------------------------------------------|
B|----------------------------------------------------------------------|
G|---6-6-6-6-6-6-6-6---10-10----------8-8-------6-6---------------------|
D|---6-6-6-6-6-6-6-6---10-10--6-8-10--8-8-8-6-5-6-6---------------------|
A|---4-4-4-4-4-4-4-4---8--8-----------6-6-------4-4---------------------|
E|----------------------------------------------------------------------|

e|----------------------------------------------------------------------------|
B|----------------------------------------------------------------------------|
G|-------------------------------------------------------6-6------------------|
D|-10-6-8-5-6-3-5-1-3-1-----3-3--10-6-8-5-6-3-5-1-3-5-6--6-6------------------|
A|----------------------4---3-3--------------------------4-4------------------|
E|--------------------------1-1-----------------------------------------------|

e|--------------------------------------------------------------------------|
B|--------------------------------------------------------------------------|
G|-------------------------------------------------------6-6----------------|
D|-10-6-8-5-6-3-5-1-3-1-----3-3--10-6-8-5-6-3-5-1-3-5-6--6-6----------------|
A|----------------------4---3-3--------------------------4-4----------------|
E|--------------------------1-1---------------------------------------------|

e|------------------------------------------------------------3-------------|
B|------------------------------------------------------------------4-------|
G|--6--5-----3----------3-5----------------------------6-6-6----------------|
D|--6----------------6------6--3-3-3--5-6--3-3-3--5-6--6-6-6----------------|
A|--4----4-4----4-4------------3-3-3-------3-3-3-------4-4-4---4-4-----44---|
E|-----------------------------1-1-1-------1-1-1--------------------======--|

e---------------------------------------------------------------------------|
B---------------------------------------------------------------------------|
G--5-4-5---------------8-8-8----------6-8---5-------------------------------|
D-------6--3-3-3--5-6--8-8-8----8-6-5---------------------------------------|
A----------3-3-3-------6-6-6------------------------------------------------|
E----------1-1-1------------------------------------------------------------|

Ch play 2 times
e-------------------11-11-11-11-11-11-11-11----------------------------------|
B-8-8-8-8--9-9-9-9--------------------------9-9-8-8-8-8-9-9-9-9--------------|
G---------------------------------------------------------------10-10-10-10--|
D----------------------------------------------------------------------------|
A----------------------------------------------------------------------------|
E----------------------------------------------------------------------------|

e-8H9P8-----------------------11-11-11-11-11-11-11-11---------------------|
B-------11-9-8-8-8-8--9-9-9-9-------------------------9-9-8-8-8-8-9-9-9-9-|
G-------------------------------------------------------------------------|
D-------------------------------------------------------------------------|
A-------------------------------------------------------------------------|
E-------------------------------------------------------------------------|

e--------------------------------------------------------------------------|
B-------------11-9-8-------------------------------------------------------|
G-10-10-10-10--------------------------------------------------------------|
D--------------------------------------------------------------------------|
A--------------------------------------------------------------------------|
E--------------------------------------------------------------------------|

e---------------------------------------------|
B---------------------------------------------|
G---6-6-6-6-6-6-6-6-6-6-8---------------------|
D---6-6-6-6-6-6-6-6-6-6-8--2 TIMES------------|
A---4-4-4-4-4-4-4-4-4-4-6---------------------|
E---------------------------------------------|

e---------------------------------------------------------------------------|
B---------------------------------------------------------------------------|
G---6-6-6-6-6-6-6-6-6-6-6-6-------------------------------------------------|
D---6-6-6-6-6-6-6-6-6-6-6-6---3-3-3-3-3-3-3-3-3-3-3-3-----------------------|
A---4-4-4-4-4-4-4-4-4-4-4-4---3-3-3-3-3-3-3-3-3-3-3-3---2 TIMES-------------|
E-----------------------------1-1-1-1-1-1-1-1-1-1-1-1-----------------------|

e--------------------------------------------------------|
B--------------------------------------------------------|
G--------------------------------------------------------|
D--------5-5-5-------5-5-5---------5-6-6---------5-6-6---|
A--4-4-4------4-4-4--------------------------------------|
E---------------------------1-1-1---------1-1-1----------|

e--------------------------------------------------------------------------|
B---------------------------------------------8---8-9---9-8-9--------------|
G-----------------------------------------------8-----8--------------------|
D--------5-5-5-------5-5-5-------5-6-6-8-6-5-------------------------------|
A--4-4-4-------4-4-4-------------------------------------------------------|
E--------------------------1-1-1-------------------------------------------|

e---------------------------------------------------------------------|
B---------------------------------------------------------------------|
G---5--6---8---6---8--9--8--------------------------------------------|
D---5--6---8---6---8--9--8--------------------------------------------|
A---3--4---6---4---6--7--6--------------------------------------------|
E---------------------------------------------------------------------|

PLAY CHORUS

VER FOLLOW THE SONG STRUMMING
e----------------------------------|
B-6---------------6----------------|
G-6-----1----8----6----------------|
D-6-----3----8----6----------------|
A-4-----3----8----4----------------|
E-------1----6---------------------|

END
comments
We did not receive enough feedback on this tab! Please rate:
print report bad tab
1 2 3 4 5
I want to post or [tab]
guest
You may want to rate the tab now too:
select rating
Please do not post tabs as comments. Select "correction" instead!