Oops, an error
Loading. Please wait.

Basic Instinct tab

version 1
version 1

Whole song

  • Re-submit. Previous contribution did not show up in the dashboard.
by ACID
2,887 views 72 this week
1 commentread comment
1 2 3 4 5
x 5
add to favorites
×
Save as Personal and add changes to this tab that will be seen only by you. Learn more ›
×
You can save this tab as Personal to edit and correct it or add notes. All changes will be seen only by you. Learn more »
launch autoscroll
font size
0
reset
how to read this tab
guitar tuner
edit
Autoscroll
slow
fast
+/-
esc
set tempo
stop
About this tab version
Re-submit. Previous contribution did not show up in the dashboard. Was this info helpful? Yes No
[Intro / Chorus]

e|---------------------------------------------------------------------------|
B|---------------------------------------------------------------------------|
G|----------12-------12-----------4------4-----------4-------4---------------|
D|---------------------------------------------------------------------------|
A|---------------------------------------------------------------------------|
E|-12-12-12----12-12------3--3--3---3--3-----5--5--5----5--5-----------------|


[Verse]

e|---------------------------------------------------------------------------|
B|---------------------------------------------------------------------------|
G|---------------------------------------------------------------------------|
D|---------------------------------------------------------------------------|
A|---------------------------------------------------------------------------|
E|-12-12-12-12-12-12-12-12--3--3--3--3--3--3--3--3--5--5--5--5--5--5--5--5---|

e|---------------------------------------------------------------------------|
B|---------------------------------------------------------------------------|
G|---------------------------------------------------------------------------|
D|---------------------------------------------------------------------------|
A|---------------------------------------------------------------------------|
E|-3--3--3--3--3--3--3--3----------------------------------------------------|


[Distorted]

e|---------------------------------------------------------------------------|
B|---------------------------------------------------------------------------|
G|---------------------------------------------------------------------------|
D|-2--2--2--2--2--2--2--2--4--4--4--4--4--4--4--4--7--7--7--7--7--7--7--7----|
A|-2--2--2--2--2--2--2--2--5--5--5--5--5--5--5--5--7--7--7--7--7--7--7--7----|
E|-0--0--0--0--0--0--0--0--3--3--3--3--3--3--3--3--5--5--5--5--5--5--5--5----|

e|---------------------------------------------------------------------------|
B|---------------------------------------------------------------------------|
G|---------------------------------------------------------------------------|
D|-4--4--4--4--4--4--4--4--7--7--7--7--7--7--7--7----------------------------|
A|-5--5--5--5--5--5--5--5--7--7--7--7--7--7--7--7----------------------------|
E|-3--3--3--3--3--3--3--3--5--5--5--5--5--5--5--5----------------------------|

[Verse]
tender we fall,
quiet and numb,
tied in our jaw, speechless, speechless,
tired in love

[Chorus]
Coming up for air,
Coming up for air, air,
Coming up for air,
Coming up for air, air

[Verse]
push me back in,
silent in sin,
fight in water, want it, want it,
basic instinct

[Distorted]
tired of your wanting,
tired of your words,
tired of your wanting,
tired of your words,

[Chorus]
Coming up for air,
Coming up for air, air,
Coming up for air,
Coming up for air, air

            
            
Suggest correction
Creating personal tab
Creating personal tab
You can edit any tab online and save it as your Personal.

You can edit, replace or remove any tab part or add personal notes – all changes will be seen only by you.

Personal tabs can be accessed anytime from any device, even offline.
Learn more »
comments
print report bad tab
1 comment total.
0 reply
icerilakkumar1 35 Aug 19, 2017 11:48 AM

the [disorted] should say [bridge]

guest
You may want to rate the tab now too:
select rating
Wanna post a correction for this tab? Suggest correction