Oops, an error
Loading. Please wait.

Jezebel tab

version 1
version 1

Whole song

Interactive

52 views 6 this week
no commentswrite comment
1 2 3 4 5
3 more votes to show rating
add to favorites
×
Save as Personal and add changes to this tab that will be seen only by you. Learn more ›
×
You can save this tab as Personal to edit and correct it or add notes. All changes will be seen only by you. Learn more »
launch autoscroll
font size
0
reset
how to read this tab
guitar tuner
edit
Autoscroll
slow
fast
+/-
esc
set tempo
stop
"Jezebel" (4:53) from the album "When The Kite String Pops" - Acid Bath
Released August 8, 1994. 

For sake of saving space, both guitars play the same riff unless otherwise noted.

[Intro] 
(0:00) (Both guitars)
C |----------------------------|----------------------------|
G |----------------------------|----------------------------|
D#|----------------------------|----------------------------|
A#|----------------------------|----------------------------|
F |----------------------------|----------------------------|
C |-3-3-3--2-2-2--6-6-6--2-2-2-|-3-3-3--2-2-2--0-0-0--2-2-2-|
 PM * * *  * * *  * * *  * * *   * * *  * * *  * * *  * * *                    

C |----------------------------|--------------------|
G |----------------------------|--------------------|
D#|----------------------------|--------------------|
A#|----------------------------|--------------------|
F |----------------------------|---------------2--2-|
C |-3-3-3--2-2-2--6-6-6--2-2-2-|-3-3-3--2-2-2--0--0-| "If I put this cigarette..."
 PM * * *  * * *  * * *  * * *   * * *  * * *  

(0:08) (Both guitars)
C |----------------------------|----------------------------|
G |----------------------------|----------------------------|
D#|----------------------------|----------------------------|
A#|----------------------------|----------------------------|
F |----------------------------|----------------------------|
C |-3-3-3--2-2-2--6-6-6--2-2-2-|-3-3-3--2-2-2--0-0-0--2-2-2-|
 PM * * *  * * *  * * *  * * *   * * *  * * *  * * *  * * *                    

C |----------------------------|-------------------------|
G |----------------------------|-------------------------|
D#|----------------------------|-------------------------|
A#|----------------------------|-------------------------|
F |----------------------------|---------------2-2-2-2-2-|
C |-3-3-3--2-2-2--6-6-6--2-2-2-|-3-3-3--2-2-2--0-0-0-0-0-| "Would you love me?"
 PM * * *  * * *  * * *  * * *   * * *  * * *  * * * * *                                                
                                                     
[Verse]
(0:15) (Both guitars)
C |-------------------|--------------------|
G |-------------------|--------------------|
D#|-------------------|--------------------|
A#|-------------------|--------------------|
F |-/8--5-5--4-4--5-5-|-2-2--5-5--4-4--5-5-|
C |-/6--3-3--2-2--3-3-|-0-0--3-3--2-2--3-3-| (x4)
 PM     * *  * *  * *   * *  * *  * *  * *

(0:26) (Guitar 1, right side)
"Her throat..."
C |-------------------|--------------------|
G |-------------------|--------------------|
D#|-------------------|--------------------|
A#|-------------------|--------------------|
F |--8--5-5--4-4--5-5-|-2-2--5-5--4-4--5-5-|
C |--6--3-3--2-2--3-3-|-0-0--3-3--2-2--3-3-| (x4)

(0:26) (Guitar 2, left side)
C |----------------------------------------------------------------------|
G |----------------------------------------------------------------------|
D#|----------------------------------------------------------------------|
A#|--8~------------------------------------------------------------------|
F |----------------------------------------------------------------------|
C |----------------------------------------------------------------------|
(give ^this note a ton of vibrato, and let it turn into feedback)

[Chorus]
(0:37) (Both guitars)
"Jezebel..."
C |------------------|--------------------|
G |------------------|--------------------|
D#|------------------|--------------------|
A#|------------------|--------------------|
F |-8--5-5--4-4--5-5-|-2-2--5-5--4-4--5-5-|
C |-6--3-3--2-2--3-3-|-0-0--3-3--2-2--3-3-| (x2)
 PM    * *  * *  * *   * *  * *  * *  * *

(0:43) (Both guitars)
C |---------------------|------------------------|---------------------|---------------------|
G |---------------------|------------------------|---------------------|---------------------|
D#|---------------------|------------------------|---------------------|---------------------|
A#|---------------------|------------------------|---------------------|---------------------|
F |--------8-8-8--9-9-9-|--------9-9-9--10-10-10-|--------8-8-8--9-9-9-|--------7-7-7--8-8-8-|
C |-7-7-7---------------|-8-8-8------------------|-7-7-7---------------|-6-6-6---------------|
 PM * * *  * * *  * * *   * * *  * * *   *  *  *   * * *  * * *  * * *   * * *  * * *  * * * 

(0:47) (Guitar 1, right side)
C |-------------------|--------------------|-----|
G |-------------------|--------------------|-----|
D#|-------------------|--------------------|-----|
A#|-------------------|--------------------|-----|
F |--8----------------|--------------------|--8--|
C |--6----------------|--------------------|--6--|

(0:47) (Guitar 2, left side)
C |-------------------|--------------------|-----|
G |-------------------|--------------------|-----|
D#|-------------------|--------------------|-----|
A#|-------------------|--------------------|-----|
F |--8--5-5--4-4--5-5-|-2-2--5-5--4-4--5-5-|--8--|
C |--6--3-3--2-2--3-3-|-0-0--3-3--2-2--3-3-|--6--|

(0:53) (Guitar 1, right side)
"Red rope burns..."
C |-------------------|--------------------|
G |-------------------|--------------------|
D#|-------------------|--------------------|
A#|-------------------|--------------------|
F |--8--5-5--4-4--5-5-|-2-2--5-5--4-4--5-5-|
C |--6--3-3--2-2--3-3-|-0-0--3-3--2-2--3-3-| (x4)

(0:53) (Guitar 2, left side)
C |-------------------------------------------|
G |-------------------------------------------|
D#|-------------------------------------------|
A#|--8~---------------------------------------|
F |-------------------------------------------|
C |-------------------------------------------|
   (^same story as earlier, make it sing)

(1:04) (Both guitars)
"Do you love..."
C |------------------|--------------------|
G |------------------|--------------------|
D#|------------------|--------------------|
A#|------------------|--------------------|
F |-8--5-5--4-4--5-5-|-2-2--5-5--4-4--5-5-|
C |-6--3-3--2-2--3-3-|-0-0--3-3--2-2--3-3-| (x2)
 PM    * *  * *  * *   * *  * *  * *  * *

(1:09) (Both guitars)
C |-----------------|----------------|
G |-----------------|----------------|
D#|-----------------|----------------|
A#|-----------------|----------------|
F |-----------------|----------------|
C |-/6~--3~--2~--3~-|--0--3~--2~--3~-| (x2)
On this riff, really emphasise the slide up to the 6th fret, and vibrato the heck outta those bad boys.

[Chorus]
(01:15) (Both guitars)
C |---------------------|------------------------|---------------------|---------------------|
G |---------------------|------------------------|---------------------|---------------------|
D#|---------------------|------------------------|---------------------|---------------------|
A#|---------------------|------------------------|---------------------|---------------------|
F |--------8-8-8--9-9-9-|--------9-9-9--10-10-10-|--------8-8-8--9-9-9-|--------7-7-7--8-8-8-|
C |-7-7-7---------------|-8-8-8------------------|-7-7-7---------------|-6-6-6---------------| (x2)
 PM * * *  * * *  * * *   * * *  * * *   *  *  *   * * *  * * *  * * *   * * *  * * *  * * *

(1:24) (Both guitars)
C |------------|-------------|
G |------------|-------------|
D#|------------|-------------|
A#|------------|--10~--------|
F |-----8~-----|------9~-----|
C |--7~----7~--|---------8~--|

(01:26) (Both guitars)
C |---------------------|------------------------|---------------------|---------------------|
G |---------------------|------------------------|---------------------|---------------------|
D#|---------------------|------------------------|---------------------|---------------------|
A#|---------------------|------------------------|---------------------|---------------------|
F |--------8-8-8--9-9-9-|--------9-9-9--10-10-10-|--------8-8-8--9-9-9-|--------7-7-7--8-8-8-|
C |-7-7-7---------------|-8-8-8------------------|-7-7-7---------------|-6-6-6---------------| (x2)
 PM * * *  * * *  * * *   * * *  * * *   *  *  *   * * *  * * *  * * *   * * *  * * *  * * *

(1:35) (Both guitars)
C |------------|-------------|
G |------------|-------------|
D#|------------|-------------|
A#|------------|--10~--------|
F |-----8~-----|------9~-----|
C |--7~----7~--|---------8~--|

(1:38) (Bass interlude)

(2:11) (Guitar 1, right side)
"Hearts will stop..."
C |-------------------------------------------|
G |-------------------------------------------|
D#|-------------------------------------------|
A#|-------------------------------------------|
F |-------------------------------------------|
C |---------------------------0-0-0-0-0-0-0-0-| (x4)
                          PM  * * * * * * * *
(2:11) (Guitar 2, left side)
C |-------------------------------------------|
G |-------------------------------------------|
D#|-------------------------------------------|
A#|-------------------------------------------|
F |-(7)(7)(7)(7)(7)(7)(7)(7)------------------|
C |----those are natural harmonics------------| (x4)

(2:18) (Guitar 1, right side)
"She screams bloody murder..."                      
C |------------------------------------------|-----------------------------------|
G |------------------------------------------|-----------------------------------|
D#|------------------------------------------|-----------------------------------|
A#|------------------------------------------|-----------------------------------|
F |------------------------------------------|-----------------------------------|
C |--------------------------0-0-0-0-0-0-0-0-|--0-0-0-0-0-0-0-0--0-0-0-0-0-0-0-0-|
                        PM   * * * * * * * *    * * * * * * * *  * * * * * * * *

(2:18) (Guitar 2, left side)
"She screams bloody murder..."
C |------------------------------------------|----------------------------------|
G |------------------------------------------|----------------------------------|
D#|------------------------------------------|----------------------------------|
A#|------------------------------------------|----------------------------------|
F |-(7)(7)(7)(7)(7)(7)(7)(7)-7-7-7-7-7-7-7-7-|-7-7-7-7-7-7-7-7--7-7-7-7-7-7-7-7-|
C |------------------------------------------|----------------------------------|
                        PM   * * * * * * * *   * * * * * * * *  * * * * * * * *

(2:20) (Guitar 1, right side)
"...as they chop off her fingers..."                      
C |------------------------------------|------------------------------------|
G |------------------------------------|------------------------------------|
D#|------------------------------------|------------------------------------|
A#|------------------------------------|------------------------------------|
F |------------------------------------|------------------------------------|
C |--0-0-0-0-0-0-0-0--0-0-0-0-0-0-0-0--|--0-0-0-0-0-0-0-0--0-0-0-0-0-0-0-0--|
 PM  * * * * * * * *  * * * * * * * *     (gradually stop palm-muting)

(2:20) (Guitar 2, left side)
"...as they chop off her fingers..."
C |------------------------------------|------------------------------------|
G |------------------------------------|------------------------------------|
D#|------------------------------------|------------------------------------|
A#|------------------------------------|------------------------------------|
F |--7-7-7-7-7-7-7-7--7-7-7-7-7-7-7-7--|--7-7-7-7-7-7-7-7--7-7-7-7-7-7-7-7--|
C |------------------------------------|------------------------------------|
PM   * * * * * * * *  * * * * * * * *     (gradually stop palm-muting)

(2:26) (Guitar 1, right side)
"But its ok!"                      
C |-------------------|-------------------|-------------------|-------------------|
G |-------------------|-------------------|-------------------|-------------------|
D#|-------------------|-------------------|-------------------|-------------------|
A#|--7h8p7---7h8p7----|--7h8p7---7--------|-------------------|-------------------|
F |--------8-------8--|--------8---8-7-8--|--7h8p7---7h8p7----|--7h8p7---7--------|
C |-------------------|-------------------|--------8-------8--|--------8---8-7-8--|                    
      PM   *       *           *   *               
                
(2:26) (Guitar 2, left side)
"But it's ok!"
C |-------------------|-------------------|-------------------|-------------------| 
G |-------------------|-------------------|-------------------|-------------------|
D#|-------------------|-------------------|-------------------|-------------------|
A#|-------------------|-------------------|-------------------|-------------------|
F |--7h8p7---7h8p7----|--7h8p7---7--------|--7h8p7---7h8p7----|--7h8p7---7--------|
C |--------8-------8--|--------8---8-7-8--|--------8-------8--|--------8---8-7-8--| 
      PM   *       *           *   *

(2:33) (Guitar 1, right side)
"Yeah, everything's ok!"                      
C |-------------------|-------------------|-------------------|-------------------|
G |-------------------|-------------------|-------------------|-------------------|
D#|-------------------|-------------------|-------------------|-------------------|
A#|--7h8p7---7h8p7----|--7h8p7---7--------|-------------------|-------------------|
F |--------8-------8--|--------8---8-7-8--|--7-8-7---7-8-7----|--7-8-7---7--------|
C |-------------------|-------------------|--------8-------8--|--------8---8-7-8--|                    
      PM   *       *           *   *     PM  * * * * * * * *     * * * * * * * *          
                
(2:33) (Guitar 2, left side)
"But it's ok!"
C |-------------------|-------------------|-------------------|-------------------| 
G |-------------------|-------------------|-------------------|-------------------|
D#|-------------------|-------------------|-------------------|-------------------|
A#|-------------------|-------------------|-------------------|-------------------|
F |--7h8p7---7h8p7----|--7h8p7---7--------|--7-8-7---7-8-7----|--7-8-7---7--------|
C |--------8-------8--|--------8---8-7-8--|--------8-------8--|--------8---8-7-8--| 
      PM   *       *           *   *     PM  * * * * * * * *     * * * * * * * * 

(2:40) (Both guitars)
"She was talkin'..."                      
C |-----------------------------------|-----------------------------------|
G |-----------------------------------|-----------------------------------|
D#|-----------------------------------|-----------------------------------|
A#|-----------------------------------|-----------------------------------|
F |--7-7-8-8-7-7-----7-7-8-8-7-7------|--7-7-8-8-7-7-----7-7--------------|
C |--------------8-8-------------8-8--|--------------8-8-----8-8-7-7-8-8--| (x4)                   
 PM  * * * * * * * * * * * * * * * *     * * * * * * * * * * * * * * * * 

(2:55) (Both guitars, as far as I can tell)
"Hearts will stop..."                      
C |---------------------------------|
G |---------------------------------|
D#|-------------------------(7)(7)--|
A#|------------------(8)(8)---------|
F |---------------------------------|
C |--0-0-0-0-0-0-0-0----------------| (x4)                    
 PM  * * * * * * * * (^those natural harmonics again)

(3:02) (Both guitars)
"She screams bloody murder..."                      
C |------------------------------------|------------------------------------|
G |------------------------------------|------------------------------------|
D#|------------------------------------|------------------------------------|
A#|------------------------------------|------------------------------------|
F |------------------------------------|------------------------------------|
C |--0-0-0-0-0-0-0-0--0-0-0-0-0-0-0-0--|--0-0-0-0-0-0-0-0--0-0-0-0-0-0-0-0--|
 PM  * * * * * * * *  * * * * * * * *     * * * * * * * *  * * * * * * * *   

(3:05) (Both guitars)
"...so this is how it feels..."                      
C |------------------------------------|------------------------------------|
G |------------------------------------|------------------------------------|
D#|------------------------------------|------------------------------------|
A#|------------------------------------|------------------------------------|
F |------------------------------------|------------------------------------|
C |--0-0-0-0-0-0-0-0--0-0-0-0-0-0-0-0--|--0-0-0-0-0-0-0-0--0-0-0-0-0-0-0-0--|
 PM  * * * * * * * *   (gradually stop palm-muting)

(3:09) (Guitar 1, right side)
"But its ok!"                      
C |-------------------|-------------------|-------------------|-------------------|
G |-------------------|-------------------|-------------------|-------------------|
D#|-------------------|-------------------|-------------------|-------------------|
A#|--7h8p7---7h8p7----|--7h8p7---7--------|-------------------|-------------------|
F |--------8-------8--|--------8---8-7-8--|--7h8p7---7h8p7----|--7h8p7---7--------|
C |-------------------|-------------------|--------8-------8--|--------8---8-7-8--| (x2)                  
      PM   *       *           *   *                 
                
(3:09) (Guitar 2, left side)
"But it's ok!"
C |-------------------|-------------------|-------------------|-------------------| 
G |-------------------|-------------------|-------------------|-------------------|
D#|-------------------|-------------------|-------------------|-------------------|
A#|-------------------|-------------------|-------------------|-------------------|
F |--7h8p7---7h8p7----|--7h8p7---7--------|--7h8p7---7h8p7----|--7h8p7---7--------|
C |--------8-------8--|--------8---8-7-8--|--------8-------8--|--------8---8-7-8--| (x2)
      PM   *       *           *   *  

(3:24) (Both guitars)
"It's ok..."                      
C |---------------------------------|
G |---------------------------------|
D#|-------------------------(7)(7)--|
A#|------------------(8)(8)---------|
F |---------------------------------|
C |--0-0-0-0-0-0-0-0----------------| (x3)                    
 PM  * * * * * * * * (^those natural harmonics again)

(3:29) (Both guitars)
"It's ok..."                      
C |-------------------------------|-----|
G |-------------------------------|-----|
D#|-------------------------------|-----|
A#|-------------------------------|-----|
F |-------------------2--2--2--2--|--2--|
C |--0-0-0-0-0-0-0-0--0--0--0--0--|--0--|                      
 PM  * * * * * * * *  *  *  *  *     *

(3:42) (Both guitars)
"Jezebel!"
C |----------------|-------------------|-------------------|
G |----------------|-------------------|-------------------|
D#|----------------|-------------------|-------------------|
A#|----------------|-------------------|-------------------|
F |--5-4------5-4--|--5-6-5-4-5-4------|------5-4-5-6-5-4--|
C |--3-2------3-2--|--3-4-3-2-3-2------|------3-2-3-4-3-2--|               
 PM  * *      * *     * * * * * *             * * * * * *                    
 
(3:48) (Both guitars)
"Go!"
C |-------------------|-------------------|--------------------|
G |-------------------|-------------------|--------------------|
D#|-------------------|-------------------|--------------------|
A#|-------------------|-------------------|--------------------|
F |--7-6-7-8-7-6-7-6--|--7-8-7-6-7-6-7-8--|--7-6--6-----5------|
C |--5-4-5-6-5-4-5-4--|--5-6-5-4-5-4-5-6--|--5-4----5-4---4-3--|

(3:53) (Both guitars)
"My light!"
C |----------------|-------------------|-------------------|
G |----------------|-------------------|-------------------|
D#|----------------|-------------------|-------------------|
A#|----------------|-------------------|-------------------|
F |--5-4------5-4--|--5-6-5-4-5-4------|------5-4-5-6-5-4--|
C |--3-2------3-2--|--3-4-3-2-3-2------|------3-2-3-4-3-2--|               
 PM  * *      * *     * * * * * *             * * * * * * 

(3:58) (Both guitars)
"Go!"
C |-------------------|-------------------|--------------------|
G |-------------------|-------------------|--------------------|
D#|-------------------|-------------------|--------------------|
A#|-------------------|-------------------|--------------------|
F |--7-6-7-8-7-6-7-6--|--7-8-7-6-7-6-7-8--|--7-6--6-----5------|
C |--5-4-5-6-5-4-5-4--|--5-6-5-4-5-4-5-6--|--5-4----5-4---4-3--| 

(4:04) (Guitar 1, right side)
C |-------------------|-------------------|-------------------|
G |-------------------|-------------------|-------------------|
D#|-------------------|-------------------|-------------------|
A#|-------------------|-------------------|-------------------|
F |--5-4---------5-4--|--5-6-5-4-5-4-5-6--|--5-4-5-4-5-6-5-4--|
C |--3-2---------3-2--|--3-4-3-2-3-2-3-4--|--3-2-3-2-3-4-3-2--| 
 PM  * *         * *     * * * * * * * *     * * * * * * * * 

(4:04) (Guitar 2, left side)
C |-------------------|-------------------|-------------------|
G |-------------------|-------------------|-------------------|
D#|-------------------|-------------------|-------------------|
A#|-------------------|-------------------|-------------------|
F |--5-4-5-6-5-4-5-4--|--5-6-5-4-5-4------|------5-4-5-6-5-4--|
C |--3-2-3-4-3-2-3-2--|--3-4-3-2-3-2------|------3-2-3-4-3-2--| 
 PM  * * * * * * * *     * * * * * *             * * * * * *

(4:10) (Both guitars)
"Go!"
C |-------------------|-------------------|--------------------|
G |-------------------|-------------------|--------------------|
D#|-------------------|-------------------|--------------------|
A#|-------------------|-------------------|--------------------|
F |--7-6-7-8-7-6-7-6--|--7-8-7-6-7-6-7-8--|--7-6--6-----5------|
C |--5-4-5-6-5-4-5-4--|--5-6-5-4-5-4-5-6--|--5-4----5-4---4-3--| 

(4:15) (Both guitars)
C |-------------------|-------------------|-------------------|
G |-------------------|-------------------|-------------------|
D#|-------------------|-------------------|-------------------|
A#|-------------------|-------------------|-------------------|
F |--5-4-5-6-5-4-5-4--|--5-6-5-4-5-4-5-6--|--5-4-5-4-5-6-5-4--|
C |--3-2-3-4-3-2-3-2--|--3-4-3-2-3-2-3-4--|--3-2-3-2-3-4-3-2--| 
 PM      * * * *         * * * *     * *     * *     * * * *

(4:20) (Both guitars)
C |-------------------|-------------------|--------------------|
G |-------------------|-------------------|--------------------|
D#|-------------------|-------------------|--------------------|
A#|-------------------|-------------------|--------------------|
F |--7-6-7-8-7-6-7-6--|--7-8-7-6-7-6-7-8--|--7-6--6-----5------|
C |--5-4-5-6-5-4-5-4--|--5-6-5-4-5-4-5-6--|--5-4----5-4---4-3--|

(4:26) (Both guitars)
"Jeze-!"
C |-------------------|-------------------|-------------------|
G |-------------------|-------------------|-------------------|
D#|-------------------|-------------------|-------------------|
A#|-------------------|-------------------|-------------------|
F |--5-4-5-6-5-4-5-4--|--5-6-5-4-5-4-5-6--|--5-4-5-4-5-6-5-4--|
C |--3-2-3-4-3-2-3-2--|--3-4-3-2-3-2-3-4--|--3-2-3-2-3-4-3-2--| 
 PM      * * * *         * * * *     * *     * *     * * * *

(4:32) (Both guitars)
C |-------------------|-------------------|--------------------|
G |-------------------|-------------------|--------------------|
D#|-------------------|-------------------|--------------------|
A#|-------------------|-------------------|--------------------|
F |--7-6-7-8-7-6-7-6--|--7-8-7-6-7-6-7-8--|--7-6--6-----5------|
C |--5-4-5-6-5-4-5-4--|--5-6-5-4-5-4-5-6--|--5-4----5-4---4-3--|

(4:37) (Guitar 1, right side)              
C |-------------------|-------------------|----------x-x-x-x--|
G |-------------------|-------------------|----------x-x-x-x--|
D#|-------------------|-------------------|----------x-x-x-x--|
A#|-------------------|-------------------|-------------------|
F |--5-4---------5-4--|----------5-4-5-6--|--5-4-5-4----------|
C |--3-2---------3-2--|----------3-2-3-4--|--3-2-3-2----------| 
 PM  * *         * *             * * * *     * * * *  

Note: To recreate the sound effect, just get your pick and jab it into the frets
while going down the fretboard. Idk how else to explain it. :/ 

(4:37) (Guitar 2, left side)
C |-------------------|-------------------|-------------------|
G |-------------------|-------------------|-------------------|
D#|-------------------|-------------------|-------------------|
A#|-------------------|-------------------|-------------------|
F |--5-4-5-6-5-4-5-4--|----------5-4------|------5-4----------|
C |--3-2-3-4-3-2-3-2--|----------3-2------|------3-2----------| 
 PM  * * * * * * * *             * *             * * 

(4:42) (Both guitars)
C |-------------------|-------------------|--------------------|--------|
G |-------------------|-------------------|--------------------|--------|
D#|-------------------|-------------------|--------------------|--------|
A#|-------------------|-------------------|--------------------|--------|
F |--7-6-7-8-7-6-7-6--|--7-8-7-6-7-6-7-8--|--7-6--6-----5------|--5--4--|
C |--5-4-5-6-5-4-5-4--|--5-6-5-4-5-4-5-6--|--5-4----5-4---4-3--|--3--2--|
                                                              PM  *  

There ya have it!



************************************

| PM   Palm mute
| /    Slide up
| ~    Vibrato
| (n)  Ghost note
| h    Hammer-on
| p    Pull-off
| x    Dead note
|      
| #    
| (    
| ) (Guitar 
| , left side) 
| :    
| PM  * * * * * * * * 
| those are natural harmonics 

************************************

            
            
Suggest correction
Creating personal tab
Creating personal tab
You can edit any tab online and save it as your Personal.

You can edit, replace or remove any tab part or add personal notes – all changes will be seen only by you.

Personal tabs can be accessed anytime from any device, even offline.
Learn more »
Give kudos to tab author, rate the tab!
1 2 3 4 5
comments
print report bad tab
guest
You may want to rate the tab now too:
select rating
Wanna post a correction for this tab? Suggest correction