Oops, an error
Loading. Please wait.

Scream Of The Butterfly tab

version 3
version 3

Whole song

Interactive

9,970 views 24 this week
4 commentsread comments
1 2 3 4 5
x 6
add to favorites
×
Save as Personal and add changes to this tab that will be seen only by you. Learn more ›
×
You can save this tab as Personal to edit and correct it or add notes. All changes will be seen only by you. Learn more »
launch autoscroll
font size
0
reset
how to read this tab
guitar tuner
edit
Autoscroll
slow
fast
+/-
esc
set tempo
stop
Tuning: Down 1/2 Step ( #D-#G-#C-#F-#A-#D )

[Intro]
e|-------------------Best effect to use is Flanger set on 3/4 saturation----|
B|--------------------------------------------------------------------------|
G|--------------------------------------------------------------------------|
D|-------4--0-----2--0------------------------------------------------------|
A|--0/2--------2--------4--0------------------------------------------------| (x4)
E|--------------------------------------------------------------------------|

[Verse] 
( A creature made of sunshine..........)
e|--------------------------------------------------------------------------|
B|--------------------------------------------------------------------------|
G|--------------------------------------------------------------------------|
D|-------4--0-----2--0------------------------------------------------------|
A|--0/2--------2--------4--0--(x4)-- then --------4--0-----2--0-------------|
E|-------------------------------------------0/2--------2--------4--0--(x4)-|

        ( She smells like a child..............)
e|--------------------------------------------------------------------------|
B|--------------------------------------------------------------------------|
G|--------------------------------------------------------------------------|
D|-------4--0-----2--0-------------4--0-----2--0----------------------------|
A|--0/2--------2--------4--0--0/2--------2--------4--0-------4--0-----2--0--|
E|------------------------------------------------------0/2--------2--------|

e|--------------------------------------------------------------------------|
B|--------------------------------------------------------------------------| (x2)
G|--------------------------------------------------------------------------|
D|--------------------------------------------------------------------------|
A|-------------4--0-----2--0------------------------------------------------|
E|--4--0--0/2--------2--------4--0------------------------------------------|

e|---x----------------------------------------------------------------------|
B|---3----------------------------------------------------------------------|
G|---4-----1st strum--(I like the scream of the butterfly)--2nd Strum-------|
D|---4----------------------------------------------------------------------|
A|---2----------------------------------------------------------------------|
E|---0----------------------------------------------------------------------|

Acoustic riff (I'm not sure if this is right but it sounds good to me)
e|--------------------------------------------------------------------------|
B|--------------------------------------------------------------------------|
G|----12-11------12-11------12-11-----14-12-11-11---------------------------|
D|--9-------12-9-------12-9-------12---------------12-----------------------|
A|--------------------------------------------------(x5)--------------------|
E|--------------------------------------------------------------------------|

e|--14-14-14-14\12-12-12-12\10-10-10-10\9-9-9-9-10-10-10-9h10p9-9-12-10-9---|
B|--------------------------------------------------------------------------|
G|--------------------------------------------------------------------------|
D|--------------------------------------------------------------------------|
A|--------------------------------------------------------------------------|
E|--------------------------------------------------------------------------|

(Since i simplified this song I use this for the Chorus)
(later on i will add the actual riffs for the Chorus)
e|----------------------------------------------------------------------------|
B|----------------------------------------------------------------------------|
G|-4-44-4-44-44-4444-4h5p4--2p0--3-33-3-33-33-3333----------------------------|
D|-4-44-4-44-44-4444-------------4-44-4-44-44-4444----------------------------|
A|-2-22-2-22-22-2222-------------4-44-4-44-44-4444----------------------------|
E|-------------------------------2-22-2-22-22-2222----------------------------|
( if anyone knows how to do the solo before i finish it let me know ok )
and i will put it here along with the ending


************************************

| /  Slide up
| x  Dead note
| h  Hammer-on
| p  Pull-off
| \  Slide down

************************************

            
            
Suggest correction
Creating personal tab
Creating personal tab
You can edit any tab online and save it as your Personal.

You can edit, replace or remove any tab part or add personal notes – all changes will be seen only by you.

Personal tabs can be accessed anytime from any device, even offline.
Learn more »
comments
print report bad tab
4 comments total. Showing first comments.
0 reply
Space Oddity 10 Jul 12, 2011 11:03 AM

Lyrics correction: the angel with the sawed-off shotgun was *wanted* by the FBI, not working for them, lolz

0 reply
Parabox 10 Jun 01, 2013 03:43 AM

Best tab of this out there, any chance you'll ever complete it?

0 reply
coldfan 210 Dec 17, 2014 12:52 AM

Well im back now after quite a long time away and will be finishing things that have not been done.

guest
You may want to rate the tab now too:
select rating
Wanna post a correction for this tab? Suggest correction