Oops, an error
Loading. Please wait.

The Blue Bass Tab

version 1
version 1

Whole song

  • The only full tab for "The Blue" by Acid Bath on t... Show more

Interactive

130 views 9 this week
no commentswrite comment
1 2 3 4 5
1 last vote to show rating
add to favorites
launch autoscroll
font size
0
reset
guitar tuner
Autoscroll
slow
fast
+/-
esc
set tempo
stop
Help us to improve Ultimate-Guitar.com Take our survey!
×
Author
Difficulty
Tuning
novice
C# F# B E
About this tab version
The only full tab for "The Blue" by Acid Bath on the bass. 7th riff may seem out of place, it was a bit hard to figure out so may be wrong. Was this info helpful? Yes No
[Intro]
F|---------------------------------------------------------------|
C|---------------------------------------------------------------| x4
G|--------6------------------------------------------------------|
C|-0-00-5---5~--3-5-3-0------------------------------------------|

[Riff 1]
F|---------------------------------------------------------------|
C|---------------------------------------------------------------| x4
G|--------6------------------------------------------------------|
C|-0-00-5---5~--3-5-3-0------------------------------------------|

[Riff 2]
F|---------------------------------------------------------------|
C|---------------------------------------------------------------| x4
G|----------5---5-7-5-7~-----------------------------------------|
C|-0-00-5-7---7--------------------------------------------------|

[Riff 1]
F|---------------------------------------------------------------|
C|---------------------------------------------------------------| x4
G|--------6------------------------------------------------------|
C|-0-00-5---5~--3-5-3-0------------------------------------------|

[Riff 2]
F|---------------------------------------------------------------|
C|---------------------------------------------------------------| x4
G|----------5---5-7-5-7~-----------------------------------------|
C|-0-00-5-7---7--------------------------------------------------|

[Bass Interlude]
F|---------------------------------------------------------------|
C|---------------------------------------------------------------| x1
G|-7-5-0-3-0-------5---------------------------------------------|
C|-----------3-0-3---0-3~----------------------------------------|

[Riff 3]
F|---------------------------------------------------------------|
C|---------------------------------------------------------------| x2
G|-------7-----------7----------7------------7---7---------------|
C|-0-5h7---7\--0-5h7---7\--0-5h7---7\--0-5h7---7---7\------------|

[Riff 4]
F|---------------------------------------------------------------|
C|------14^------------------------------------------------------| x12
G|---------------------------------------------------------------|
C|-0-00-----0-000-1^1^-------------------------------------------|

[Riff 5]
F|---------------------------------------------------------------|
C|------11-12\---------------------------------------------------| x12
G|---------------------------------------------------------------|
C|-0-00--------0-000-1^1^----------------------------------------|

[Riff 6]
F|-----|    F|--------------------------------------------------------------|    F|-------|
C|-----| x1 C|--------------------------------------------------------------| x7 C|-------| x1
G|-5-3-|    G|-5-3----------------------------------------------------------|    G|-5-3---|
C|-----|    C|-----5-3-0----------------------------------------------------|    C|-----5-|

[Riff 7]
F|---------------------------------------------------------------|
C|---------------------------------------------------------------| x2
G|---------------------------------------------------------------|
C|-0-0-000-12^---------------------------------------------------|

[Riff 6]
F|-----|    F|--------------------------------------------------------------|    F|-------|
C|-----| x1 C|--------------------------------------------------------------| x7 C|-------| x1
G|-5-3-|    G|-5-3----------------------------------------------------------|    G|-5-3---|
C|-----|    C|-----5-3-0----------------------------------------------------|    C|-----5-|

[Riff 7]
F|---------------------------------------------------------------|     F|-----|
C|---------------------------------------------------------------| x4  C|-----| x1
G|---------------------------------------------------------------|     G|-----|
C|-0-0-000-12^---------------------------------------------------|     C|-0---|

[Riff 1]
F|----------------|     F|---------------------------------------------------------------|
C|----------------| x1  C|---------------------------------------------------------------| x8
G|---6------------|     G|--------6------------------------------------------------------|
C|-5---5~--3-5-3-0|     C|-0-00-5---5~--3-5-3-0------------------------------------------|

[Riff 2]
F|---------------------------------------------------------------|
C|---------------------------------------------------------------| x6
G|----------5---5-7-5-7~-----------------------------------------|
C|-0-00-5-7---7--------------------------------------------------|

[Riff 1]
F|---------------------------------------------------------------|
C|---------------------------------------------------------------| x2
G|--------6------------------------------------------------------|
C|-0-00-5---5~--3-5-3-0------------------------------------------|

************************************

| h  Hammer-on
| \  Slide down
| ~  Vibrato

************************************
Suggest correction
Give kudos to tab author, rate the tab!
1 2 3 4 5
comments
print report bad tab
guest
You may want to rate the tab now too:
select rating
Wanna post a correction for this tab? Suggest correction