Oops, an error
Loading. Please wait.

All Alone bass

268 views 6 this week
3 commentsread comments
1 2 3 4 5
3 more votes to show rating
add to favorites
×
Save as Personal and add changes to this tab that will be seen only by you. Learn more ›
×
You can save this tab as Personal to edit and correct it or add notes. All changes will be seen only by you. Learn more »
launch autoscroll
font size
0
reset
guitar tuner
edit
Autoscroll
slow
fast
+/-
esc
set tempo
stop
(Bass Start - 00:11)

[Intro]
(00:11)
G|----------------|-----------------|----------------|----------------| (x6)
D|----------------|-5-5-5-5-5-5-5-5\|-3-3-3-3-3-3-3-3|-3-3-3-3-3-3-3-3|
A|-3-3-3-3-3-3-3-3|-----------------|----------------|----------------|
E|----------------|-----------------|----------------|----------------|

[Verse]
G|----------------|-----------------|----------------|----------------| (x3)
D|----------------|-5-5-5-5-5-5-5-5\|-3-3-3-3-3-3-3-3|-3-3-3-3-3-3-3-3|
A|-3-3-3-3-3-3-3-3|-----------------|----------------|----------------|
E|----------------|-----------------|----------------|----------------|

G|----------------|-----------------|------------------------|
D|----------------|-5-5-5-5-5-5-5-5\|-3-3-3-3-3-3-3-3--------|
A|-3-3-3-3-3-3-3-3|-----------------|------------------------|
E|----------------|-----------------|------------------------|

[Chorus]
G|----------------|-----------------|----------------|----------------| (x4)
D|----------------|-5-5-5-5-5-5-5-5\|-3-3-3-3-3-3-3-3|-3-3-3-3-3-3-3-3|
A|-3-3-3-3-3-3-3-3|-----------------|----------------|----------------|
E|----------------|-----------------|----------------|----------------|

[Instrumental]
G|----------------|-----------------|----------------|----------------| (x3)
D|----------------|-5-5-5-5-5-5-5-5\|-3-3-3-3-3-3-3-3|-3-3-3-3-3-3-3-3|
A|-3-3-3-3-3-3-3-3|-----------------|----------------|----------------|
E|----------------|-----------------|----------------|----------------|

G|----------------|-----------------|------------------------|
D|----------------|-5-5-5-5-5-5-5-5\|-3-3-3-3-3-3-3-3--------|
A|-3-3-3-3-3-3-3-3|-----------------|------------------------|
E|----------------|-----------------|------------------------|

[Verse]
G|----------------|-----------------|----------------|----------------| (x3)
D|----------------|-5-5-5-5-5-5-5-5\|-3-3-3-3-3-3-3-3|-3-3-3-3-3-3-3-3|
A|-3-3-3-3-3-3-3-3|-----------------|----------------|----------------|
E|----------------|-----------------|----------------|----------------|

G|----------------|-----------------|------------------------|
D|----------------|-5-5-5-5-5-5-5-5\|-3-3-3-3-3-3-3-3--------|
A|-3-3-3-3-3-3-3-3|-----------------|------------------------|
E|----------------|-----------------|------------------------|

[Chorus/Bass Outro]
G|----------------|-----------------|----------------|----------------| (x4)
D|----------------|-5-5-5-5-5-5-5-5\|-3-3-3-3-3-3-3-3|-3-3-3-3-3-3-3-3|
A|-3-3-3-3-3-3-3-3|-----------------|----------------|----------------|
E|----------------|-----------------|----------------|----------------|


**********************************

| \ Slide down

**********************************

            
            
Suggest correction
Creating personal tab
Creating personal tab
You can edit any tab online and save it as your Personal.

You can edit, replace or remove any tab part or add personal notes – all changes will be seen only by you.

Personal tabs can be accessed anytime from any device, even offline.
Learn more »
Give kudos to tab author, rate the tab!
1 2 3 4 5
comments
print report bad tab
3 comments total.
0 reply
gmarcosalves 10 Jun 05, 2017 09:53 AM

I need a tab of "I don't Need You", please help me

guest
You may want to rate the tab now too:
select rating
Wanna post a correction for this tab? Suggest correction