Oops, an error
Loading. Please wait.

Hide My Face tab

220 views 21 this week
1 commentread comment
1 2 3 4 5
2 more votes to show rating
add to favorites
×
Save as Personal and add changes to this tab that will be seen only by you. Learn more ›
×
You can save this tab as Personal to edit and correct it or add notes. All changes will be seen only by you. Learn more »
launch autoscroll
font size
0
reset
how to read this tab
guitar tuner
edit
Autoscroll
slow
fast
+/-
esc
set tempo
stop
About this tab version
Full tab with multiple overlapping guitar parts. Simple due to repeated riffs throughout. Please rate or comment. Was this info helpful? Yes No
Acid Ghost - Hide My Face
Tuning - Drop C#
Tabbed by jjhand




[Riff Part 1]

D#|------------------------|--------------------------|
A#|------------------------|--------------------------|
F#|------------------------|----------0---------------|  play 2x
C#|----4-------------------|----4------------4--------|
G#|-------5----------------|-------5--------------5---|
C#|-0--------0-------------|-0------------------------|

D#|------------------------|--------------------------|
A#|------------------------|--------------------------|
F#|------------------------|----------0---------------|
C#|----4-------------------|----4------------4--------|
G#|-------5----------------|-------5------------5-----|
C#|-5--------5-------------|-5---------------------5--|

D#|------------------------|--------------------------|
A#|------------------------|--------------------------|
F#|------------------------|----------0---------------|
C#|----4-------------------|----4------------4--------|
G#|-------5----------------|-------5------------5-----|
C#|-0--------0-------------|-0---------------------0--|



[Riff Part 2]
    Play Part 1 again, and second guitar plays this:

D#|------------------------|----------------------|--------------------|---------------------|
A#|----------7-------------|----------------8--7--|--------------------|---------------------|
F#|-------7----------------|----------------------|-7------------------|---------------------|
C#|-7--9-------------------|----------------------|--------------------|---------------7--7--|
G#|------------------------|----------------------|--------------------|---------------------|
C#|------------------------|----------------------|--------------------|---------------------|

D#|-----------------------|-----------------------|--------------------|--------------------|
A#|-----------------------|-----------------------|--------------------|--------------------|
F#|-----------------------|-----------------------|--------------------|--------------------|
C#|-----------------------|--------------------2--|--------------------|--------------------|
G#|-7-----5---------------|-----------------2-----|-5------------------|--------------------|
C#|-----------------------|-----------------------|--------------------|--------------------|



[Repeated Riff]

    Play Part 1 again, and second guitar plays this:

D#|-----10--14--10------10--14--10--|
A#|-10--------------10--------------|
F#|---------------------------------|
C#|---------------------------------|  play 4x
G#|---------------------------------|
C#|---------------------------------|

D#|---------14--------------14------|-17--14------------------14------|
A#|-----15------15------15----------|---------------------15------15--|
F#|-16--------------16----------16--|---------16------16--------------|
C#|---------------------------------|---------------------------------|
G#|---------------------------------|---------------------------------|
C#|---------------------------------|---------------------------------|

D#|-----10--14--10------10--14--10--|
A#|-10--------------10--------------|
F#|---------------------------------|
C#|---------------------------------|  play 2x
G#|---------------------------------|
C#|---------------------------------|




    Guitar 3 Part:
D#|----10--------------------|-------------------|-----------------------|---------------------|
A#|--------10--8--7----------|-------------------|-----------------------|-----------------10--|
F#|-7------------------------|-------------------|-------7--9--/11-------|---------------------|
C#|--------------------------|-----rest----------|-7--9------------------|--------------/7-----|
G#|--------------------------|-------------------|-----------------------|---------------------|
C#|--------------------------|-------------------|-----------------------|---------------------|

D#|------------------------|------------10-12----|-----------------------|---------------------|
A#|-7b8r-------------------|---------------------|-----------------------|---------------------|
F#|------------------------|------------------12-|---11------------------|----rest-------------|
C#|------------9-----------|---------------------|------12---------------|---------------------|
G#|------------------------|---------------------|-----------------------|---------------------|
C#|------------------------|---------------------|-----------------------|---------------------|


Repeat the above parts (16 bars total)



[Synth Part]
    At 1:37 a synth part plays and the Repeated Riff above resumes with some extra fuzz 
    distortion on Guitar 3. Song ends with conversation and police sirens.



************************************

| r   Release
| b   Bend
| /   Slide up
| \   Slide down

************************************

            
            
Suggest correction
Creating personal tab
Creating personal tab
You can edit any tab online and save it as your Personal.

You can edit, replace or remove any tab part or add personal notes – all changes will be seen only by you.

Personal tabs can be accessed anytime from any device, even offline.
Learn more »
Give kudos to tab author, rate the tab!
1 2 3 4 5
comments
print report bad tab
1 comment total.
0 reply
charlieoshea 48 Aug 31, 2017 07:30 AM

accurate tab of a sweet song!

guest
You may want to rate the tab now too:
select rating
Wanna post a correction for this tab? Suggest correction