Oops, an error
Loading. Please wait.

Pink Lady Lemonade tab

2,859 views 3 this week
1 commentread comment
1 2 3 4 5
x 3
add to favorites
×
Save as Personal and add changes to this tab that will be seen only by you. Learn more ›
×
You can save this tab as Personal to edit and correct it or add notes. All changes will be seen only by you. Learn more »
launch autoscroll
font size
0
reset
how to read this tab
guitar tuner
edit
Autoscroll
slow
fast
+/-
esc
set tempo
stop
Author
e-----------------------------------------------|
B-5---7---5---7---5--7----7---8---7---8---7--8--|
G--5---5---5---5---5--5----7---7---7---7---7--7-|
D---5---5---5---5-----------7---7---7---7-------|
A-----------------------------------------------|
E-----------------------------------------------|

This is the melody played throughout the whole song, the add on notes are
subtley changed later but its been a little different every time I've heard
it. And have fun with the solo, and if youve seen AMT live you know what I
mean by "have fun".

http://www.acidmothers.com/Cgi-bin/index_pre07ustour/index.html

            
            
Suggest correction
Creating personal tab
Creating personal tab
You can edit any tab online and save it as your Personal.

You can edit, replace or remove any tab part or add personal notes – all changes will be seen only by you.

Personal tabs can be accessed anytime from any device, even offline.
Learn more »
Give kudos to tab author, rate the tab!
1 2 3 4 5
comments
print report bad tab
1 comment total.
-1 reply
JohnApricot 10 Apr 23, 2007 06:34 PM

e------------------------------------------------------------------
B---5--7--5--7--5-7-5--7--5--7--5-7--8--7--8--7-8-7--8--7--8--7-8--
G----5--7--5--7--5-7-5--7--5--7--5-7--7--7--7--7-7-7--7--7--7--7-7-
D-----5--5--5--5------5--5--5--5----5--5--5--5------5--5--5--5-----
A------------------------------------------------------------------
E------------------------------------------------------------------

That's how the riff starts out _pretty much_ every time, including on the album, but there are a Lot of variations on the riff. And yea, the live solos are pretty insane- it's no surprise Kawabata Makoto is credited for guitar and "Speed Guru."

guest
You may want to rate the tab now too:
select rating
Wanna post a correction for this tab? Suggest correction