Oops, an error
Loading. Please wait.

Attempt Tab

by Acme
240 views 3 this week
no commentswrite comment
1 2 3 4 5
please rate
add to favorites
launch autoscroll
font size
0
reset
how to read this tab
guitar tuner
Autoscroll
slow
fast
+/-
esc
set tempo
stop
Help us to improve Ultimate-Guitar.com Take our survey!
×
Author
Difficulty
intermediate
www.myspace.com/acmegermany

e|-------------------------------------|
B|-------------------------------------|
G|-------------------9-10-9-8-9-10-9-8-| x3
D|-------------------------------------|
A|-------------------7-8--7-6-7-8--7-6-|
E|-0000000000000000--------------------|
   PMPMPMPMPMPMPMPM 

e|------------------------------------------|
B|------------------------------------------|
G|-------------------9-10-10-12-12-14-14-15-|
D|------------------------------------------|
A|-------------------7-8--8--10-10-12-12-13-|
E|-0000000000000000-------------------------|
   PMPMPMPMPMPMPMPM

e|--------------- 1,3 --------------------|
B|----------------------------------------|
G|----------------------------------------|
D|----------------------------------------|
A|----3---3----3---3----3----7(bend down)-|
E|-00-1-0-1-00-1-0-1-00-1-0---------------|
   PM  PM   PM   PM   PM   PM                     

e|----- 2 -------|
B|---------------|
G|---------------|
D|---------------|
A|----3---3----5-|
E|-00-1-0-1-00-3-|
   PM  PM   PM   

e|---------- 4 -----------------|
B|------------------------------|
G|------------------------------|
D|------------------------------|
A|----3---3-----5/6-5-3-5/5-5-3-|
E|-00-1-0-1-00--3/4-3-1-3/4-3-1-|
   PM  PM   PM   PM   PM   PM   

e|--------------0-----|
B|----------------4---|
G|------------------3-|
D|-2------------------| x2
A|-2-(let ring)-------|
E|-0------------------|

e|---------0-----0-----0-----0-----0-----|
B|-----------6-----6-----6-----6-----6---|
G|-------------5-----5-----5-----5-----5-|
D|-2-------------------------------------|
A|-2-(LR)--------------------------------|
E|-0-------------------------------------|

e|-------------------------------------|
B|-------------------------------------|
G|-------------------9-10-9-8-9-10-9-8-| x3
D|-------------------------------------|
A|-------------------7-8--7-6-7-8--7-6-|
E|-0000000000000000--------------------|
   PMPMPMPMPMPMPMPM

e|------------------------------------------|
B|------------------------------------------|
G|-------------------9-10-10-12-12-14-14-15-|
D|------------------------------------------|
A|-------------------7-8--8--10-10-12-12-13-|
E|-0000000000000000-------------------------|
   PM PM PM PM PM PM PM PM

e|---------------|
B|---------------|
G|---------------| x2
D|-----9-5---8-4-|
A|-2-2-7-3-2-6-2-|
E|-0-0-----0-----|
   PM      PM

e|-----------------0-----|
B|-----------------------|
G|---------------4---4---| x1
D|---------------4-------|
A|-2-2------3----2-----2-|
E|-0-0-0000-1-00---------|
       PMPM   PM

e|---------------|
B|---------------|
G|---------------| x1
D|-----9-5---8-4-|
A|-2-2-7-3-2-6-2-|
E|-0-0-----0-----|
   PM      PM

e|-----------------0-----|
B|-----------------------|
G|---------------4---4---| x1
D|---------------4-------|
A|-2-2------3----2-----2-|
E|-0-0-0000-1-00---------|
       PMPM   PM


e|---------------|
B|---------------|
G|---------------| x3
D|-----9-5---8-4-|
A|-2-2-7-3-2-6-2-|
E|-0-0-----0-----|
   PM      PM

e|--------------12*---------12*-----|
B|------------------12*---------12*-|
G|----------------------12*---------|
D|-2--------------------------------|
A|-2-(let ring)---------------------|
E|-0--------------------------------|


e|--------------------------------|
B|--------------------------------|
G|--------------------------------| x4
D|-----------------7/9-9/10-10/12-|
A|------3-2----2-3-5/7-7/8--8-/10-|
E|-0000-1-0-00-0-1----------------|
   PMPM     PM

e|-------------------------------------------------|
B|--------------------x4---------------------------|
G|-------------------------------------------------| Brackets on
D|---------141414141414151515151515-(181818181818)-| 3rd time
A|-7777777-----------------------------------------|
E|-------------------------------------------------|

END

Email any corrections / suggestions to thisisourstruggle@hotmail.co.uk
Suggest correction
Give kudos to tab author, rate the tab!
1 2 3 4 5
comments
print report bad tab
guest
You may want to rate the tab now too:
select rating
Please do not post tabs as comments. Select "correction" instead!