Oops, an error
Loading. Please wait.

Dont Fade Away Tab

version 1
version 1

Whole song

12,636 views 30 this week
1 commentread comment
1 2 3 4 5
1 last vote to show rating
add to favorites
launch autoscroll
font size
0
reset
how to read this tab
guitar tuner
×
Best way to learn
"Dont Fade Away"
Autoscroll
slow
fast
+/-
esc
set tempo
stop
Author
Dont fade away
by Russell Acosta
tabbed by: Patrick of SeNYor B
Patience please
enjoy!!!

Intro:

C                     G   D       Am        G
---------------0------3---2-----------------------3------3-------------------|
-0-1-0-----1-----1------3---3--------0-1-3----------3----3--1----------------|
-------2-0---0-----0----------2----2--------3---------4--4--0----0-----------|
--------------------------0-----0-------------5-------------2--2---2---------|
---------3-----3--------------------------------5----------------------------|
----------------------3---------------------4-----3------3--0----------------|

Am
-----------------1-----1-1-0-----------------------3-----3---3p2-------------|
-0-1-0-----1-------1-----1-1-----1h3-3-----0-1-------1-----1-----3-----------|
-------0h2---2-------2---2-0-0---------0-------2-------2-----------2---------|
---------------2---------------2---------0-------2-----------0-------0-------|
-----------0-----0-------0-3---------2-------0-----0-------------------------|
-----------------------------------------------------------------------------|

Verse 1:

C                     G   D       Am        G
---------------0------3---2-----------------------3------3-------------------|
-0-1-0-----1-----1------3---3--------0-1-3----------3----3--1----------------|
-------2-0---0-----0----------2----2--------3---------4--4--0----0-----------|
--------------------------0-----0-------------5-------------2--2---2---------|
---------3-----3--------------------------------5----------------------------|
----------------------3---------------------4-----3------3--0----------------|

Am
-----------------1-----1-1-0-----------------------3-----3---3p2-------------|
-0-1-0-----1-------1-----1-1-----1h3-3-----0-1-------1-----1-----3-----------|
-------0h2---2-------2---2-0-0---------0-------2-------2-----------2---------|
---------------2---------------2---------0-------2-----------0-------0-------|
-----------0-----0-------0-3---------2-------0-----0-------------------------|
-----------------------------------------------------------------------------|

Chorus:

C
-------------0--2-----2-----------------2--2-----2-----2----------0-----3----|
-1-----1----------3-----3---3-----3----------3-----3-----3--1-------1--------|
---0-----0----------2-----2---4-----4----------2-----2--------2-------2------|
-----2-----2----0-----0---------4-----4----0-----0-----0--------2------------|
-3-----3-----3--------------2-----2-----2-------------------0-----0----------|
-----------------------------------------------------------------------------|


-0--0------------------------3---3p2-----2--3--------------------------------|
-1--1------1h3-3-----0-1-------1-----3---3--3--------------------------------|
-2--0--1---------0-------2-------------2-2-----------------------------------|
---------2---------0-------2-----0-------0-----------------------------------|
-0--3----------2-------0-----0-----------------------------------------------|
-----------------------------------------------------------------------------|

Next Verse 2 then:

Bridge:.

------------------------------------------------------------2-----2-----2h3-----|
-1-----1-----1----1-1------1-----1-----1----3-----3-----3-----3-----3-------3---|
---2-----2-----2--2-0--------0-----0-----0----0-----0-----0-----2-----2---------|
-----2-----2------2-2-2--------2-----2----------0-----0-----0-----0-------------|
-0-----0----------0-3---3--3-----3-----3----------------------------------------|
--------------------------------------------3-----0-----------------------------|


------------------------------------------------------------2-----2-----2h3-------|
-1-----1-----1----1-1------1-----1-----1----1-----1-----1-----3-----3-------3-----|
---2-----2-----2--2-0--------0-----0-----0----2-----2-----2-----2-----2-------2---|
-----2-----2------2-2-2--------2-----2----------2-----2-----0-----0-------------0-|
-0-----0----------0-3---3--3-----3-----3----0-----0-------------------------------|
----------------------------------------------------------------------------------|

Last part The Ending...

C                     G   D       Am        G
---------------0------3---2-----------------------3------3-------------------|
-0-1-0-----1-----1------3---3--------0-1-3----------3----3--1----------------|
-------2-0---0-----0----------2----2--------3---------4--4--0----0-----------|
--------------------------0-----0-------------5-------------2--2---2---------|
---------3-----3--------------------------------5----------------------------|
----------------------3---------------------4-----3------3--0----------------|


Am                                     C  D  G
-----------------1-----1-1-0-----------0--2--3-|
-0-1-0-----1-------1-----1-1-----1h3---1--3--3-|
-------0h2---2-------2---2-0-0---------0--2--0-|
---------------2---------------2-------2--0--0-|
-----------0-----0-------0-3-----------3-----2-|
---------------------------------------------3-|

hehehe...
e-mail nyu lang me pag may mali!!!
ill appreciate..
patrick_sevilla11@yahoo.com
Suggest correction
Give kudos to tab author, rate the tab!
1 2 3 4 5
comments
print report bad tab
1 comment total.
0 reply
emperor wurm 10 Feb 01, 2007 09:19 PM

sigurado kb sa tab bk sayang lang pera ko

guest
You may want to rate the tab now too:
select rating
Wanna post a correction for this tab? Suggest correction