Oops, an error
Loading. Please wait.

Playing For Time tab

version 3
version 3

Whole song

11,459 views 3 this week
3 commentsread comments
1 2 3 4 5
x 8
add to favorites
×
Save as Personal and add changes to this tab that will be seen only by you. Learn more ›
×
You can save this tab as Personal to edit and correct it or add notes. All changes will be seen only by you. Learn more »
launch autoscroll
font size
0
reset
how to read this tab
guitar tuner
edit
Autoscroll
slow
fast
+/-
esc
set tempo
stop
Author
Acoustic Alchemy- Playing for Time

-I've been tabbing for quite some time now (maybe three years or so) but I've never
really submitted any of them in the net. But, after seeing the tabs on this song, I
couldn't help but submit my tab.  I give a thumb's up to the two who've submitted
before me, but I feel a bit skeptical about some parts of their tabs (mind your scales!
= )). (^_^) I hope you find my VERY first submitted tab fine! Enjoy dudes!

Oh, and if you want the rhythm for this, check the other tab. Jae K. did a
very cool job tabbing it out!

Intro:
======
e|-0-|
B|-0-|
G|-0-|
D|-0-|
A|-0-|
E|-0-|
*Down strum.

1st part: 00:02 - 00:41.
=========
e|---7~---9----------------------|
B|----------10~-----8~---7-5~-3~-|
G|----------------7--------------|
D|-------------------------------|
A|-------------------------------|
E|-------------------------------|

e|---7~---9---------------------------|
B|----------10~-----8~---7-5~-3~-2~-0-|
G|----------------7-------------------|
D|------------------------------------|
A|------------------------------------|
E|------------------------------------|

e|7~---9-----------------------------1-3/7~---12-9------10-------------|
B|-------10~-----8~---7-5~-3~---2-3-4--------------12~-----8~----------|
G|-------------7--------------4----------------------------------------|
D|---------------------------------------------------------------------|
A|---------------------------------------------------------------------|
E|---------------------------------------------------------------------|

----------------|
-7-5~-3~-2-3p2--|
---------------4|
----------------|
----------------|
----------------|

2nd part: 00:41 - 01:24.
=========
*I just placed the transition of broken chords here. I'm too lazy to type the strumming.

e|-7-10-9--5------7-4-2|--7-10--9--5----7-4-2-0-|
b|-8-11-10-6------8-5-3|--8-11--10-6----8-5-3-2-|
g|-7-10-9--5------7-4-2|--7-10--9--5----7-4-2-0-|
d|---------------------|------------------------|
a|---------------------|------------------------|
E|---------------------|------------------------|
*Repeat twice.


e|-----------5-5-----------------------------------------------4------|
B|-7-7~-7-7----------------7-7-----------3-3------------2-2-2h4-------|
G|----------------7-7~-7-7-----0-4-4~-4-4-----2-2~-2-2----------------|
D|--------------------------------------------------------------------|
A|--------------------------------------------------------------------|
E|--------------------------------------------------------------------|

e|-----------5-5--------------------------------------------------------------|
B|-7-7~-7-7----------------7-7-----------3-3------------2-2-2.........--------|
G|----------------7-7~-7-7-----0-4-4~-4-4-----2-2~-2-2--2-2-2.........--------|
D|----------------------------------------------------------------------------|
B|----------------------------------------------------------------------------|
E|----------------------------------------------------------------------------|

3rd Part: 01:25 - 02:37.
=========
e|7~---9-----------------------------1-3/7~---12-9------10-------------|
B|-------10~-----8~---7-5~-3~---2-3-4--------------12~-----8~---7-5-3--|
G|-------------7--------------4----------------------------------------|
D|---------------------------------------------------------------------|
A|---------------------------------------------------------------------|
E|---------------------------------------------------------------------|

e|----------------|
B|-7-5~-3~-2-3p2--|
G|---------------4|
D|----------------|
A|----------------|
E|----------------|

e|-7-10-9--5------7-4-2|--7-10--9--5----7-4-2-0-|
b|-8-11-10-6------8-5-3|--8-11--10-6----8-5-3-2-|
g|-7-10-9--5------7-4-2|--7-10--9--5----7-4-2-0-|
d|---------------------|------------------------|
a|---------------------|------------------------|
E|---------------------|------------------------|

e|-----------5-5-----------------------------------------------4------|
B|-7-7~-7-7----------------7-7-----------3-3------------2-2-2h4-------|
G|----------------7-7~-7-7-----0-4-4~-4-4-----2-2~-2-2----------------|
D|--------------------------------------------------------------------|
A|--------------------------------------------------------------------|
E|--------------------------------------------------------------------|

e|-----------5-5------------------------------------------------------|
B|-7-7~-7-7----------------7-7-----------3-3------------2-2-2---------|
G|----------------7-7~-7-7-----0-4-4~-4-4-----2-2~-2-2--2-2-2---------|
D|--------------------------------------------------------------------|
B|--------------------------------------------------------------------|
E|--------------------------------------------------------------------|

e|-----------5-5-----------------------------------------------4------|
B|-7-7~-7-7----------------7-7-----------3-3------------2-2-2h4-------|
G|----------------7-7~-7-7-----0-4-4~-4-4-----2-2~-2-2----------------|
D|--------------------------------------------------------------------|
A|--------------------------------------------------------------------|
E|--------------------------------------------------------------------|

e|-----------7-5--------------------------------------------------------------|
B|-7-7~-7-7----------------7-7-----------3-3------------2-2-2.........--------|
G|----------------7-7~-7-7-----0-4-4~-4-4-----2-2~-2-2--2-2-2.........--------|
D|----------------------------------------------------------------------------|
B|----------------------------------------------------------------------------|
E|----------------------------------------------------------------------------|

4th part: 02:38 - 3:22.
=========

e|5-3-2~---------------------------------------------------------------|
b|--------3p1-3~-0-3-5----------------------3b4r3----------------2-3-4-|
g|---------------------4/6-2-2---2-4--2-4-2-------4-4-2-4--2-4---------|
d|-----------------------------4---------------------------------------|
a|---------------------------------------------------------------------|
E|---------------------------------------------------------------------|

1-3-3/7-7-5---------------|
---------------5/7-5-3----|
-----------------------4~-|
--------------------------|
--------------------------|
--------------------------|

e|---7---7-7~---7-—5--3--------5--3--2-------------------------5-7-10--|
b|-----------------------5~-------------3~----------3--3-5-5/7---------|
g|-4---4------4--------------2----------------2-3-4--4-----------------|
d|---------------------------------------------------------------------|
a|---------------------------------------------------------------------|
E|---------------------------------------------------------------------|

12/14-10-12-8-10-12-13-14-13-12-10-8-10~-9----------------------------|
------------------------------------------10-----10/12-10-------------|
----------------------------------------------11-----------11/9--7----|
-------------------------------------------------------------------9--|
----------------------------------------------------------------------|
----------------------------------------------------------------------|

e|----------------------------------1-3-1------------------------------|
b|-5/7-5-3-2--5-3-2-----------2-3-4--------4-2-4-5~-4-5-5/7~-4-5-7-----|
g|-------------------2-4~--0-4-----------------------------------------|
d|---------------------------------------------------------------------|
a|---------------------------------------------------------------------|
E|---------------------------------------------------------------------|

7-7-5-7-7------8/10-10-8-6----------3-5-7-10--6--3------------3-5-7-9--|
---------6/8~--------------6/4-3---5--------8--5--3---0-2/3-5----------|
-----------------------------------------------------------------------|
-----------------------------------------------------------------------|
-----------------------------------------------------------------------|
-----------------------------------------------------------------------|

13-11-13-11-13/15-15-13-11-13/15~-|
----------------------------------|
----------------------------------|
----------------------------------|
----------------------------------|
----------------------------------|

Last Part: 3:22 - 5:51 (fades out)
==========
This is pretty much the same as the previous parts.

That's it!

E-mail at ifyhard2@yahoo.com for comments, suggestions, or whatever, really! = )

-Ifyhard

            
            
Suggest correction
Creating personal tab
Creating personal tab
You can edit any tab online and save it as your Personal.

You can edit, replace or remove any tab part or add personal notes – all changes will be seen only by you.

Personal tabs can be accessed anytime from any device, even offline.
Learn more »
comments
print report bad tab
3 comments total.
+1 reply
reaktori 10 Dec 12, 2006 05:22 AM

Some mistakes here in this otherwise nice tab. I'm going to correct only this part a bit... latter three chords are still not right (except the first 787 sounds ok). If someone has time to figure out these, please do so.

e|-7-10-9--5------7-5-2|--7-10--9--5----7-5-2-0-|
b|-8-12-10-7------8-7-3|--8-12--10-7----8-7-3-2-|
g|-7-12-9--7------7-7-2|--7-12--9--7----7-7-2-0-|
d|---------------------|------------------------|
a|---------------------|------------------------|
E|---------------------|------------------------|
*Repeat twice.

0 reply
Ifyhard 413 Dec 14, 2006 04:37 PM

Thanks for your input dude~! I actually tried this version before, but for simplicity's sake, I sent in a one chord-formation riff. Besides, in a full band, you'll barely notice the difference. But, like I said, I appreciate your post.

0 reply
Labib 10 Dec 26, 2008 10:09 PM

thx reaktori

guest
You may want to rate the tab now too:
select rating
Wanna post a correction for this tab? Suggest correction