Oops, an error
Loading. Please wait.
4 views 1 this week
no commentswrite comment
1 2 3 4 5
3 more votes to show rating
add to favorites
launch autoscroll
font size
0
reset
how to read this tab
guitar tuner
Autoscroll
slow
fast
+/-
esc
set tempo
stop
Help us to improve Ultimate-Guitar.com Take our survey!
×
Author
Difficulty
Tuning
advanced
A E A D F# B
[Intro]

B |---------------------------------------------------------------------------|
F#|---------------------------------------------------------------------------|
D |---------------------------------------------------------------------------|
A |---------------------------------------------------------------------------|
E |-2p0--------------------5h8--1p0--------------------4h7--------------------|
A |-----0000-2p0-0000--5h8----------0000-1p0-0000--4h7------------------------|

B |---------------------------------------------------------------------------|
F#|---------------------------------------------------------------------------|
D |---------------------------------------------------------------------------|
A |------------------------------------------111------------------------------|
E |-2p0--------------------5h8--1p0----------000------------------------------|
A |-----0000-2p0-0000--5h8----------0000-1p0-111------------------------------|

^^^^(Repeat 4times)


[Verse]

B |---------------------------------------------------------------------------|
F#|---------------------------------------------------------------------------|
D |---------------------------------------------------------------------------|
A |-111111~---------1---------------------------------------------------------|
E |-000000~-2---1-------------------------------------------------------------|
A |-111111~--1-0-0-1----------------------------------------------------------|
^^^^^Repeat 4 times)

[Breakdown] 
B |---------------------------------------------------------------------------|
F#|---------------------------------------------------------------------------|
D |---------------------------------------------------------------------------|
A |--1~~~~~~~~~~~~~~~---------------------------------------------------------|
E |--0~~~~~~~~~~~~~~~---------------------------------------------------------|
A |--1~~~~~~~~~~~~~~~---------------------------------------------------------|
^^^^(that chord with a weird breakdown rhythm) 

(Post-Breakdown)
B |---------------------------------------------------------------------------|
F#|---------------------------------------------------------------------------|
D |---------------------------------------------------------------------------|
A |---------------------------------------------------------------------------|
E |------------------------------6666-----------------------------------------|
A |-00-00-00-00-1111-00-00-00-00------00-00-00-00-1111-00-00-00---------------|

(Post Breakdown tapping part)
B |--15t-13p-10-15t-13p-10-15t-12p-10-15t-12p-10------------------------------|
F#|---------------------------------------------------------------------------|
D |---------------------------------------------------------------------------|
A |---------------------------------------------------------------------------|
E |---------------------------------------------------------------------------|
A |---------------------------------------------------------------------------|


[Bridge]
B |---------------------------------------------------------------------------|
F#|---------------------------------------------------------------------------|
D |---------------------------------------------------------------------------|
A |-0-00-1-0-0-00-3-2-1-------------------------------------------------------|
E |-0-00-1-0-0-00-3-2-1-------------------------------------------------------|
A |-0-00-1-0-0-00-3-2-1-------------------------------------------------------|

(Thy art is murder part)
B |-----------------------------------------------------------------------------------------|
F#|-----------------------------------------------------------------------------------------|
D |--------------------------------------------------------------------------------5h7------|
A |--------------------------------------------------------------------------5h7h8----------|
E |-5-------5h6p5--------66-55-33-------------5-------5h6p5--------66-55-33-----------------|
A |---000000------000000----------66-55-33-55--000000-------000000--------------------------|

[Pre-outro]
B |---------------------------------------------------------------------------|
F#|---------------------------------------------------------------------------|
D |---------------------------------------------------------------------------|
A |-----------------------------3-2-1-----------------------------------------|
E |-5---3---6---5----5h6p5-3/5--3-2-1-----------------------------------------|
A |--0-0-0-0-0-0-0-0------------3-2-1-----------------------------------------|

(Hardest Breakdown of 2016!)
B |---------------------------------------------------------------------------|
F#|---------------------------------------------------------------------------|
D |---------------------------------------------------------------------------|
A |-0-0-0---------------------------------------------------------------------|
E |-0-0-0--0x0x0x0x00x--------------------------------------------------------|
A |-0-0-0--0x0x0x0x00x--------------------------------------------------------|



************************************

| h  Hammer-on
| p  Pull-off
| ~  Vibrato
| t  Tapping
| /  Slide up
| x  Dead note

************************************
Suggest correction
Give kudos to tab author, rate the tab!
1 2 3 4 5
comments
print report bad tab
guest
You may want to rate the tab now too:
select rating
Wanna post a correction for this tab? Suggest correction