Oops, an error
Loading. Please wait.

Game Tab

version 2
version 2

Whole song

483 views 1 this week
no commentswrite comment
1 2 3 4 5
accurate
x 1
add to favorites
launch autoscroll
font size
0
reset
how to read this tab
guitar tuner
Tab Pro tools
  • play this tab
  • loop segment
  • change instrument
  • show fretboard
  • metronome
Autoscroll
slow
fast
+/-
esc
set tempo
stop
Difficulty
intermediate
Okay, here it is, i tabbed it by ear =] I changed it a bit to fit those who aren't very 
at using chords.  I'll have the chord version up soon =]
if you have any questions, message me at =====Mirrorshadow91@aol.com=====
Props to Action Action for writing up such a great song =]
========================
Action Action Is:
Mark Thomas Kluepfel
Adam Manning
Clarke Foley
Dan Leo
========================
hope you enjoy =]
=====================================
The tuning is standard: E A D G B e
=====================================
The chords are mainly played by Mark Thomas Kluepfel [GUITAR 1]
and oddly, the solo is played by Adam Manning [GUITAR 2]
============================================================================

[0:00 - 0:08]
[0:09 - 0:17]
[0:47 - 1:04] x2
[1:34 - 1:51] x2
[2:31 - 3:06] x4
GUITAR 1
e|-0---0-0-----------------------[0-0-0-0]--0---0-0-----------------------|
B|-1---1-1------------------------1-1-1-1---1---1-1-----------------------|
G|-0---0-0-------------9---9-9\---2-2-2-2---0---0-0-------------5---5-5-5-|
D|-2---2-2---5---5-5---9---9-9\---2-2-2-2---2---2-2---5---5-5---5---5-5-5-|
A|-3---3-3---5---5-5---7---7-7----0-0-0-0---3---3-3---5---5-5---3---3-3-3-|
E|-----------3---3-3----------------------------------3---3-3-------------|
                            |-\---|

If you use 3 fingers to from the chord and slide down from |-9-| to |-2-| makes it a 
easier =]                                |-9-|    |-2-|
I Show it by using the \ mark right there

============================================================================

[0:04 - 0:08]
GUITAR 2
e|-----------------------------------------------------------------------|
B|-----------------------------------------1/---5----5--3\-1/-5\-1-------|
G|-----------------------------------------------------------------------|
D|-----------------------------------------------------------------------|
A|-----------------------------------------------------------------------|
E|-----------------------------------------------------------------------|

[0:08]
e|-0--0-0---|
B|-0--0-0---|
G|-0--0-0---|
D|-2--2-2---|    <---------Throw this in for a little effect =]
A|-2--2-2---|
E|-0--0-0---|

[0:09 - 0:17]
e|-3----3--5--8--10--12~~----3----5--8--10--15~~----3--5--8--12--8\~~~~--|
B|-----------------------------------------------------------------------|
G|-----------------------------------------------------------------------|
D|-----------------------------------------------------------------------|
A|-----------------------------------------------------------------------|
E|-----------------------------------------------------------------------|

START LOWER AND SLIDE UP TO EACH NOTE FOR A BETTER EFFECT =]

============================================================================

GUITAR 1

[0:17 - 0:23]
[1:05 - 1:11]
[1:51 - 1:56]
e|---8-8---8-8---8-8----8\~~~~~~~~~~~~~~~~-------------------------------|
B|---5-5---5-5---5-5----5\~~~~~~~~~~~~~~~~-------------------------------|
G|---5-5---5-5---5-5----5\~~~~~~~~~~~~~~~~-------------------------------|
D|---5-5---5-5---5-5----5\~~~~~~~~~~~~~~~~-------------------------------|
A|-----------------------------------------------------------------------|
E|-----------------------------------------------------------------------|

============================================================================

GUITAR 1

[0:24 - 0:46]
[1:11 - 1:33]
[1:58 - 2:21] <--------------------------------------------------------| Played behind the solo
e|---------------------------------------------------------------------|
B|--1---1-1----------------------------------------[Play three times]--|
G|--2---2-2------------------------------------------------------------|
D|--2---2-2---2---2-2---3---3---3-3-3-3--------------------------------|
A|-[0]-[0-0]--2---2-2---3---3---3-3-3-3--------------------------------|
E|-[0]-[0-0]--0---0-0---1---1---1-1-1-1--------------------------------|


e|-----------------------------------------------------------------------|
B|-----------------------------------------------------------------------|
G|-----------------------------------------------------------------------|
D|-5~~~--6~~~--7~~~--2~~~--[3~~~-Strum 8 times--]------------------------|
A|-5~~~--6~~~--7~~~--2~~~--[3~~~--then let it---]------------------------|
E|-3~~~--4~~~--5~~~--0~~~--[1~~~---ring out-----]------------------------|


============================================================================


SOLO


GUITAR 2

[1:58 - 2:21]
e|-/5---5-5-7-5-7-7b8-----/5---5-5-7-5-7-7b8-----------------------------|
B|---------------------------------------------5h6p5---------------------|
G|--------------------------------------------------5~~~~----------------|
D|-----------------------------------------------------------------------|
A|-----------------------------------------------------------------------|
E|-----------------------------------------------------------------------|

e|-5----3-----------------5-5/--15--\--/-15---15-16---16-17---17-19------|
B|--------5-3---5----------5-/--15--\------------------------------------|
G|------------5---------3------------------------------------------------|
D|----------------3----3-------------------------------------------------|
A|----------------3---3--------------------------------------------------|
E|-----------------------------------------------------------------------|

e|-19-19b~~~~---19b--19b--19b--19b~~~~~~~--------------------------------|
B|-----------------------------------------------------------------------|
G|-----------------------------------------------------------------------|
D|-----------------------------------------------------------------------|
A|-----------------------------------------------------------------------|
E|-----------------------------------------------------------------------|

============================================================================
PLAY THROUGH USING THE TIMES GIVEN AT EACH SECTION!!!!! =]

============================================================================
Just incase you wanna play the little interlude on the guitar =]

[2:21 - 2:29]
e|---------------------------------------------------------------8-------|
B|-----5-----------------------------------------------------5-8-8-------|
G|-5-7---5-----4---------4-----4h5p5---------------7-5-4-5-7-------------|
D|---------5-7---7-5---5---5-7-------7---5h7p5---5-----------------------|
A|-------------------7-----------------8-------8-------------------------|
E|-----------------------------------------------------------------------|
comments
We did not receive enough feedback on this tab! Please rate:
print report bad tab
1 2 3 4 5
I want to post or [tab]
guest
You may want to rate the tab now too:
select rating
Please do not post tabs as comments. Select "correction" instead!