Oops, an error
Loading. Please wait.

Lets Never Go To Sleep Tab

version 1
version 1

Whole song

206 views 1 this week
no commentswrite comment
1 2 3 4 5
please rate
add to favorites
launch autoscroll
font size
0
reset
how to read this tab
guitar tuner
Autoscroll
slow
fast
+/-
esc
set tempo
stop
Help us to improve Ultimate-Guitar.com Take our survey!
×
Contributor
Difficulty
intermediate
Tabbed by: Joshua Garcia (joshuag523@aol.com)

Tabs for the song: Lets Never Go To Sleep by Action Action
Please rate and let me know if you have any corrections. Thank you.

Very easy song. Only 2 parts excluding the interlude repeated throughout the whole song.


Tuning: Standard (E A D G B E)


Part 1 (Repeats throughout whole song):
E||----------------------------------------------------------------------|
B||----------------------------------------------------------------------|
G||----------------------------------------------------------------------|
D||----------------------------------------------------------------------|
A||------3-------3----------7-------7---------2-------------2------------|
E||--5-5---5---5---5---/8-8---8---8---8---0-0---3-----3-0-0---3---0-3-0--|


Part 2 (Chorus):
E||---------------------------------------|
B||---------------------------------------|
G||----------55555555---------------------|
D||-33333333-55555555-555555555555-7777---|
A||-33333333-33333333-555555555555-7777---|
E||-11111111----------333333333333-5555---|


Interlude (2:12 - 2:40)
(Not actually a guitar, but can be played)
E||---------------------------------------------------------------------------------------------|
B||--------10----------10----------8--------8-----------12---------12---------12---------12-----|
G||-----10----10----10----10-----9---9----9---9------12----12---12----12---12----12---12----12--|
D||--10----------10-----------10-------10-------10-9----------9----------9----------9-----------|
A||---------------------------------------------------------------------------------------------|
E||---------------------------------------------------------------------------------------------|




Tablature Legend
----------------
 h   hammer-on
 p   pull-off
 b   bend
 pb  pre-bend
 r   release bend
 ~   hold / vibrato
 .   palm mute
 /   slide up
 \   slide down
 *   pinch harmonic
 '   natural harmonic
 x   mute note
 T   tap
comments
We did not receive enough feedback on this tab! Please rate:
print report bad tab
1 2 3 4 5
I want to post or [tab]
guest
You may want to rate the tab now too:
select rating
Please do not post tabs as comments. Select "correction" instead!