Oops, an error
Loading. Please wait.

200 Bodies Per Minute Tab

132 views 1 this week
no commentswrite comment
1 2 3 4 5
3 more votes to show rating
add to favorites
launch autoscroll
font size
0
reset
how to read this tab
guitar tuner
Autoscroll
slow
fast
+/-
esc
set tempo
stop
Help us to improve Ultimate-Guitar.com Take our survey!
×
Author
Acumen Nation - 200 Bodies per Minute

http://www.cracknation.com/swf/cnat.html

A#-F-A#-D#-G-C


0:43
---------------------------------------------------------------|
---------------------------------------------------------------|
---------------------------------------------------------------|
---------------------------------------------------------------|
-3-5\------------*-*------*----*---------*-*------*-*----------|
------0-0-2-3----0-3-6--0-1-1--0-0-2-3---0-3-6--0-1-1----3|----|

:52
---------------------------------------------------------------|
---------------------------------------------------------------|
---------------------------------------------------------------|
---------------------------------------------------------------|
-3-5\------------*-*------*----*---------*-*------*-*----------|
------0-0-2-3----0-3-6--0-1-1--0-0-2-3---0-3-6--0-1-1----3|----|

1:02
---------------------------------------------------------------|
---------------------------------------------------------------|
---------------------------------------------------------------|
---------------------------------------------------------------|
-3-5\------------*-*------*----*---------*-*------*-*----------|
------0-0-2-3----0-3-6--0-1-1--0-0-2-3---0-3-6--0-1-1----3|----|

1:07
---------------------------------------------------------------|
---------------------------------------------------------------|
---------------------------------------------------------------|
---------------------------------------------------------------|
-3-5\------------*-*------*----*---------*-*------*-*----------|
------0-0-2-3----0-3-6--0-1-1--0-0-2-3---0-3-6--0-1-1----3|----|

1:12
---------------------------------------------------------------|
---------------------------------------------------------------|
---------------------------------------------------------------|
---------------------------------------------------------------|
--^---*-*--^---*-*--^------------^---*-*--^---*-*--^-----------|
-1-0--0-0-1-0--0-0-1-0----------1-0--0-0-1-0--0-0-1-0----------|

1:16
------------------------------------------------------------------------|
------------------------------------------------------------------------|
------------------------------------------------------------------------|
------------------------------------------------------------------------|
-0-0-0-0-0-0-10-10-10-10-10-10-9-9-9-9-9-9-9-9-9-9-9-9-9-9-9-9-9-9-9-9--|
-0-0-0-0-0-0-10-10-10-10-10-10-7-7-7-7-7-7-7-7-7-7-7-7-7-7-7-7-7-7-7-7--|

1:21
---------------------------------------------------------------|
---------------------------------------------------------------|
---------------------------------------------------------------|
---------------------------------------------------------------|
-12-12-12-12-12-12-5-5-5-5-5-5-9-9-9-9-9-9-9-9-9-9-9-9-9-9-----|
-10-10-10-10-10-10-5-5-5-5-5-5-7-7-7-7-7-7-7-7-7-7-7-7-7-7-----|

1:24
------------------------------------------------------------------------|
------------------------------------------------------------------------|
------------------------------------------------------------------------|
------------------------------------------------------------------------|
-0-0-0-0-0-0-10-10-10-10-10-10-9-9-9-9-9-9-9-9-9-9-9-9-9-9-9-9-9-9-9-9--|
-0-0-0-0-0-0-10-10-10-10-10-10-7-7-7-7-7-7-7-7-7-7-7-7-7-7-7-7-7-7-7-7--|

1:28
------------------------------------------------------|
------------------------------------------------------|
------------------------------------------------------|
------------------------------------------------------|
-12-12-12-12-12-12-5-5-5-5-5-5-9-9-9-9-9-9-5-5-5-5-5-5|
-10-10-10-10-10-10-5-5-5-5-5-5-7-7-7-7-7-7-3-3-3-3-3-3|



1:46
---------------------------------------------------------------|
---------------------------------------------------------------|
---------------------------------------------------------------|
---------------------------------------------------------------|
-3-5\------------*-*------*----*---------*-*------*-*----------|
------0-0-2-3----0-3-6--0-1-1--0-0-2-3---0-3-6--0-1-1----3|----|

1:56
---------------------------------------------------------------|
---------------------------------------------------------------|
---------------------------------------------------------------|
---------------------------------------------------------------|
-3-5\------------*-*------*----*---------*-*------*-*----------|
------0-0-2-3----0-3-6--0-1-1--0-0-2-3---0-3-6--0-1-1----3|----|

2:06
---------------------------------------------------------------|
---------------------------------------------------------------|
---------------------------------------------------------------|
---------------------------------------------------------------|
-3-5\------------*-*------*----*---------*-*------*-*----------|
------0-0-2-3----0-3-6--0-1-1--0-0-2-3---0-3-6--0-1-1----3|----|
2:10
---------------------------------------------------------------|
---------------------------------------------------------------|
---------------------------------------------------------------|
---------------------------------------------------------------|
-3-5\------------*-*------*----*---------*-*------*-*----------|
------0-0-2-3----0-3-6--0-1-1--0-0-2-3---0-3-6--0-1-1----3|----|

2:16
---------------------------------------------------------------|
---------------------------------------------------------------|
---------------------------------------------------------------|
---------------------------------------------------------------|
--^---*-*--^---*-*--^------------^---*-*--^---*-*--^-----------|
-1-0--0-0-1-0--0-0-1-0----------1-0--0-0-1-0--0-0-1-0----------|

2:21
------------------------------------------------------------------------|
------------------------------------------------------------------------|
------------------------------------------------------------------------|
------------------------------------------------------------------------|
-0-0-0-0-0-0-10-10-10-10-10-10-9-9-9-9-9-9-9-9-9-9-9-9-9-9-9-9-9-9-9-9--|
-0-0-0-0-0-0-10-10-10-10-10-10-7-7-7-7-7-7-7-7-7-7-7-7-7-7-7-7-7-7-7-7--|

2:25
---------------------------------------------------------------|
---------------------------------------------------------------|
---------------------------------------------------------------|
---------------------------------------------------------------|
-12-12-12-12-12-12-5-5-5-5-5-5-9-9-9-9-9-9-9-9-9-9-9-9-9-9-----|
-10-10-10-10-10-10-5-5-5-5-5-5-7-7-7-7-7-7-7-7-7-7-7-7-7-7-----|

2:29
------------------------------------------------------------------------|
------------------------------------------------------------------------|
------------------------------------------------------------------------|
------------------------------------------------------------------------|
-0-0-0-0-0-0-10-10-10-10-10-10-9-9-9-9-9-9-9-9-9-9-9-9-9-9-9-9-9-9-9-9--|
-0-0-0-0-0-0-10-10-10-10-10-10-7-7-7-7-7-7-7-7-7-7-7-7-7-7-7-7-7-7-7-7--|

2:33
------------------------------------------------------|
------------------------------------------------------|
------------------------------------------------------|
------------------------------------------------------|
-12-12-12-12-12-12-5-5-5-5-5-5-9-9-9-9-9-9-5-5-5-5-5-5|
-10-10-10-10-10-10-5-5-5-5-5-5-7-7-7-7-7-7-3-3-3-3-3-3|

2:36
------------------------------------------------------------------------|
------------------------------------------------------------------------|
------------------------------------------------------------------------|
------------------------------------------------------------------------|
-0-0-0-0-0-0-10-10-10-10-10-10-9-9-9-9-9-9-9-9-9-9-9-9-9-9-9-9-9-9-9-9--|
-0-0-0-0-0-0-10-10-10-10-10-10-7-7-7-7-7-7-7-7-7-7-7-7-7-7-7-7-7-7-7-7--|

2:40
-------------------------------------------|
-------------------------------------------|
-------------------------------------------|
-------------------------------------------|
-12-12-12-12-12-12-5-5-5-5-5-5-9-9-9-9-9-9-|
-10-10-10-10-10-10-5-5-5-5-5-5-7-7-7-7-7-7-|


2:44
---------------------------------------------------------------|
---------------------------------------------------------------|
---------------------------------------------------------------|
---------------------------------------------------------------|
-5------9------------8-------5------9---------------8----------|
-3------7------0-----6-------3------7-------0-------6----------|

3:03
--------------------------------------------------|
--------------------------------------------------|
--------------------------------------------------|
-3-3---3-3---3-3--3--0-4-4---4-4---4-4---4--0-----|
-3-3---3-3---3-3--3--0-4-4---4-4---4-4---4--0-----|
-3-3---3-3---3-3--3--0-4-4---4-4---4-4---4--0-----|

3:07
----------------------------------------------------------|
----------------------------------------------------------|
-7-7---7-7--7-7---7-7--7--7-6-6--6-6---6-6--6-6--6--------|
-x-x---x-x--x-x---x-x--x--x-x-x--x-x---x-x--x-x--x--------|
-5-5---5-5--5-5---5-5--5--5-4-4--4-4---4-4--4-4--4--0-----|
-0-0---0-0--0-0---0-0--0--0-------------------------0-----|

3:11
--------------------------------------------------|
--------------------------------------------------|
--------------------------------------------------|
-3-3---3-3---3-3--3--0-4-4---4-4---4-4---4--0-----|
-3-3---3-3---3-3--3--0-4-4---4-4---4-4---4--0-----|
-3-3---3-3---3-3--3--0-4-4---4-4---4-4---4--0-----|

  3:16                                         - gt2  3   4
------------------------------------------------------------|
------------------------------------------------------------|
-7-7---7-7--7-7---7-7--7--7-6-6--6-6---6-6--6-6--6----------|
-x-x---x-x--x-x---x-x--x--x-x-x--x-x---x-x--x-x--x----------|
-5-5---5-5--5-5---5-5--5--5-4-4--4-4---4-4--4-4--4--0-8---9-|
-0-0---0-0--0-0---0-0--0--0-------------------------0-6---7-|

3:27
---------------------------------------------------------------|
---------------------------------------------------------------|
---------------------------------------------------------------|
---------------------------------------------------------------|
-3-5\------------*-*------*----*---------*-*------*-*----------|
------0-0-2-3----0-3-6--0-1-1--0-0-2-3---0-3-6--0-1-1----3|----|
3:31
---------------------------------------------------------------|
---------------------------------------------------------------|
---------------------------------------------------------------|
---------------------------------------------------------------|
-3-5\------------*-*------*----*---------*-*------*-*----------|
------0-0-2-3----0-3-6--0-1-1--0-0-2-3---0-3-6--0-1-1----3|----|
3:36
---------------------------------------------------------------|
---------------------------------------------------------------|
---------------------------------------------------------------|
---------------------------------------------------------------|
-3-5\------------*-*------*----*---------*-*------*-*----------|
------0-0-2-3----0-3-6--0-1-1--0-0-2-3---0-3-6--0-1-1----3|----|

3:40
---------------------------------------------------------------|
---------------------------------------------------------------|
---------------------------------------------------------------|
---------------------------------------------------------------|
-*---------*-*------*-*----------*---------*-*------*-*--------|
-0-0-2-3---0-3-6--0-1-1----3|----0-0-2-3---0-3-6--0-1-1----3|--|

3:46
---------------------------------------------------------------|
---------------------------------------------------------------|
---------------------------------------------------------------|
---------------------------------------------------------------|
-*---------*-*------*-*----------*---------*-*------*-*--------|
-0-0-2-3---0-3-6--0-1-1----3|----0-0-2-3---0-3-6--0-1-1----3|--|

3:50
------------------------------------------------------------------------|
------------------------------------------------------------------------|
------------------------------------------------------------------------|
------------------------------------------------------------------------|
-0-0-0-0-0-0-10-10-10-10-10-10-9-9-9-9-9-9-9-9-9-9-9-9-9-9-9-9-9-9-9-9--|
-0-0-0-0-0-0-10-10-10-10-10-10-7-7-7-7-7-7-7-7-7-7-7-7-7-7-7-7-7-7-7-7--|

3:54
---------------------------------------------------------------|
---------------------------------------------------------------|
---------------------------------------------------------------|
---------------------------------------------------------------|
-12-12-12-12-12-12-5-5-5-5-5-5-9-9-9-9-9-9-9-9-9-9-9-9-9-9-----|
-10-10-10-10-10-10-5-5-5-5-5-5-7-7-7-7-7-7-7-7-7-7-7-7-7-7-----|

3:58
------------------------------------------------------------------------|
------------------------------------------------------------------------|
------------------------------------------------------------------------|
------------------------------------------------------------------------|
-0-0-0-0-0-0-10-10-10-10-10-10-9-9-9-9-9-9-9-9-9-9-9-9-9-9-9-9-9-9-9-9--|
-0-0-0-0-0-0-10-10-10-10-10-10-7-7-7-7-7-7-7-7-7-7-7-7-7-7-7-7-7-7-7-7--|

4:03
------------------------------------------------------|
------------------------------------------------------|
------------------------------------------------------|
------------------------------------------------------|
-12-12-12-12-12-12-5-5-5-5-5-5-9-9-9-9-9-9-5-5-5-5-5-5|
-10-10-10-10-10-10-5-5-5-5-5-5-7-7-7-7-7-7-3-3-3-3-3-3|

4:06
------------------------------------------------------------------------|
------------------------------------------------------------------------|
------------------------------------------------------------------------|
------------------------------------------------------------------------|
-0-0-0-0-0-0-10-10-10-10-10-10-9-9-9-9-9-9-9-9-9-9-9-9-9-9-9-9-9-9-9-9--|
-0-0-0-0-0-0-10-10-10-10-10-10-7-7-7-7-7-7-7-7-7-7-7-7-7-7-7-7-7-7-7-7--|

4:10
---------------------------------------------------------------|
---------------------------------------------------------------|
---------------------------------------------------------------|
---------------------------------------------------------------|
-12-12-12-12-12-12-5-5-5-5-5-5-9-9-9-9-9-9-9-9-9-9-9-9-9-9-----|
-10-10-10-10-10-10-5-5-5-5-5-5-7-7-7-7-7-7-7-7-7-7-7-7-7-7-----|

4:14
------------------------------------------------------------------------|
------------------------------------------------------------------------|
------------------------------------------------------------------------|
------------------------------------------------------------------------|
-0-0-0-0-0-0-10-10-10-10-10-10-9-9-9-9-9-9-9-9-9-9-9-9-9-9-9-9-9-9-9-9--|
-0-0-0-0-0-0-10-10-10-10-10-10-7-7-7-7-7-7-7-7-7-7-7-7-7-7-7-7-7-7-7-7--|

4:18
------------------------------------------------------|
------------------------------------------------------|
------------------------------------------------------|
------------------------------------------------------|
-12-12-12-12-12-12-5-5-5-5-5-5-9-9-9-9-9-9-5-5-5-5-5-5|
-10-10-10-10-10-10-5-5-5-5-5-5-7-7-7-7-7-7-3-3-3-3-3-3|

4:23
------------------------------------------------------|
------------------------------------------------------|
------------------------------------------------------|
------------------------------------------------------|
-12-12-12-12-12-12-5-5-5-5-5-5-9-9-9-9-9-9-5-5-5-5-5-5|
-10-10-10-10-10-10-5-5-5-5-5-5-7-7-7-7-7-7-3-3-3-3-3-3|

4:26
------------------------------------------------------|
------------------------------------------------------|
------------------------------------------------------|
------------------------------------------------------|
-12-12-12-12-12-12-5-5-5-5-5-5-9-9-9-9-9-9-5-5-5-5-5-5|
-10-10-10-10-10-10-5-5-5-5-5-5-7-7-7-7-7-7-3-3-3-3-3-3|


---------------------------------------------------------------|
---------------------------------------------------------------|
---------------------------------------------------------------|
---------------------------------------------------------------|
-5-------9-----------------------------------------------------|
-3-------7--------0--------------------------------------------|

Suggest correction
Give kudos to tab author, rate the tab!
1 2 3 4 5
comments
print report bad tab
guest
You may want to rate the tab now too:
select rating
Wanna post a correction for this tab? Suggest correction