Oops, an error
Loading. Please wait.

Like A Man Bass Tab

1,200 views 1 this week
no commentswrite comment
1 2 3 4 5
3 more votes to show rating
add to favorites
launch autoscroll
font size
0
reset
guitar tuner
Autoscroll
slow
fast
+/-
esc
set tempo
stop
Help us to improve Ultimate-Guitar.com Take our survey!
×
Author
Difficulty
novice
Like a Man- Adam Cohen
Bass tab, standard tuning (EADG)

http://www.adamcohen.com/

Tabbed by macosal.


Intro (played twice)
G ------------------|------------|
D -7----------------|------------| 
A -------4-----5----|-7-----7----|
E ------------------|------------|
   1  2  3  &  a  4 | 1  2  3  4 |



Verse 1
G ------------------|------------|------------------|------------|
D -7----------------|------------|-7----------------|------------|
A -------4-----5----|-7--------7-|-------4-----5----|-7----------|
E ------------------|------------|------------------|------------|
   1  2  3  &  a  4 | 1  2  3  4 | 1  2  3  &  a  4 | 1  2  3  4 | 


G ------------|------------|------------------|------------|
D ------------|------------|-7----------------|------------|
A -9----------|-5----------|-------4-----5----|-7----------|
E ------------|------------|------------------|------------|
   1  2  3  4 | 1  2  3  4 | 1  2  3  &  a  4 | 1  2  3  4



Verse 2- same as verse 1.


Chorus
G ---------|------------|
D -7-----2-|-4-----0----|  
A ---------|------------|
E ---------|------------|
   1  2  3 | 1  2  3  4 |


G ---------|------------|
D -7-----2-|-4-----0----|  
A ---------|------------|
E ---------|------------|
   1  2  3 | 1  2  3  4 |


G ------------|------------|
D -2----------|-2----------|
A ------------|------------|
E ------------|------------|
   1  2  3  4   1  2  3  4



Verse 3- same as verse 1.



Chorus
G ---------|------------|
D -7-----2-|-4-----0----|  
A ---------|------------|
E ---------|------------|
   1  2  3 | 1  2  3  4 |


G ---------|------------|
D -7-----2-|-4-----0----|  
A ---------|------------|
E ---------|------------|
   1  2  3 | 1  2  3  4 |



G ---------|------------|
D -7-----2-|-4-----0----|  
A ---------|------------|
E ---------|------------|
   1  2  3 | 1  2  3  4 |


G ------------|------------|
D -2----------|-2----------|
A ------------|------------|
E ------------|------------|
   1  2  3  4   1  2  3  4


Bridge- REST



Violin solo
G ------------------|------------|  +Repeated 3 more times
D -7----------------|------------| 
A -------4-----5----|-7-----7----|
E ------------------|------------|
   1  2  3  &  a  4 | 1  2  3  4 |



Chorus
G ---------|------------|
D -7-----2-|-4-----0----|  
A ---------|------------|
E ---------|------------|
   1  2  3 | 1  2  3  4 |


G ---------|------------|
D -7-----2-|-4-----0----|  
A ---------|------------|
E ---------|------------|
   1  2  3 | 1  2  3  4 |


G ---------|------------|
D -7-----2-|-4-----0----|  
A ---------|------------|
E ---------|------------|
   1  2  3 | 1  2  3  4 |


G ---------|------------|
D -7-----2-|-4-----0----|  
A ---------|------------|
E ---------|------------|
   1  2  3 | 1  2  3  4 |



Outro
G ------------|------------|------------|------------|---||
D -2----------|-0----------|------------|-2----------|---||
A ------------|------------|-4----------|------------|---||
E ------------|------------|------------|------------|---||
   1  2  3  4   1  2  3  4   1  2  3  4   1  2  3  4   1
Suggest correction
Give kudos to tab author, rate the tab!
1 2 3 4 5
comments
print report bad tab
guest
You may want to rate the tab now too:
select rating
Wanna post a correction for this tab? Suggest correction