Oops, an error
Loading. Please wait.

Its All In Your Hands chords

version 1
version 1

Whole song

1,777 views 1 this week
2 commentsread comments
1 2 3 4 5
x 3
add to favorites
×
Save as Personal and add changes to this tab that will be seen only by you. Learn more ›
×
You can save this tab as Personal to edit and correct it or add notes. All changes will be seen only by you. Learn more »
launch autoscroll
font size
0
reset
transpose
0
reset
display chords
guitar tuner
edit
Autoscroll
slow
fast
+/-
esc
set tempo
stop
Author
Strumming
There is no strumming pattern for this song yet. and get +5 IQ
Verse:

E-----------------------------2------------------------------------|
B-----2-----------------------3------------------------------------|
G-----2----------1------------2------------1-----------------------|
D-----2----------2-------------------------2-----------------------|
A----------------2-------------------------2-----------------------|
E------------------------------------------------------------------|(2x)

Reach for my hand, as you fall in the dark. Imprinted on me, you have left your mark. 
I wanna keep you safe, and run to where you are. Lost out in the sea, I will be your arc. 


----------------------------2---------------------------------|
----------------------------3---------------------------------|
----------------------------2--------------1------------------|
-------------------------------------------2------------------|
-------------------------------------------2------------------|
--------------------------------------------------------------|
                          I will be your arc...
Chorus:

D-----2-----------------------4-------------2------------------------|
A-----3-----------------------5-------------2------------------------|
F-----2----------1------------6-------------2------------------------|
C----------------2------------6-------------4------------------------|
G----------------2------------4-------------4------------------------|
C-----------------------------4-------------2------------------------| (3x)

Take the sky and take the land,
Take the moon and the stars, 
It's all in your hands.
All of my soul 
It feels so empty  


E-----2------------------------------------------------------------|
B-----3-----------------------2------------------------------------|
G-----2----------1------------2------------------------------------|
D----------------2------------2------------------------------------|
A----------------2-------------------------------------------------|
E------------------------------------------------------------------|

But this hole in my heart feels so heavy. 


ETC



My first tab, hope you will enjoy it :)

            
            
Suggest correction
Creating personal tab
Creating personal tab
You can edit any tab online and save it as your Personal.

You can edit, replace or remove any tab part or add personal notes – all changes will be seen only by you.

Personal tabs can be accessed anytime from any device, even offline.
Learn more »
Give kudos to tab author, rate the tab!
1 2 3 4 5
comments
print report bad tab
2 comments total.
0 reply
LoneWolfAssassi 10 Jan 08, 2014 05:25 PM

Why is the chorus in a different tune than the rest of the song?

0 reply
thegeneralmelon 24 Sep 15, 2014 11:19 AM

D-----2-----------------------4-------------2------------------------|
A-----3-----------------------5-------------2------------------------|
F-----2----------1------------6-------------2------------------------|
C----------------2------------6-------------4------------------------|
G----------------2------------4-------------4------------------------|
C-----------------------------x-------------2------------------------| (3x)

guest
You may want to rate the tab now too:
select rating
Wanna post a correction for this tab? Suggest correction