Oops, an error
Loading. Please wait.

Fever Tab

version 1
version 1

Whole song

Interactive

6,705 views 1 this week
no commentswrite comment
1 2 3 4 5
accurate
x 4
add to favorites
launch autoscroll
font size
0
reset
how to read this tab
guitar tuner
Tab Pro tools
  • play this tab
  • loop segment
  • change instrument
  • show fretboard
  • metronome
×
Best way to learn
"Fever"
Autoscroll
slow
fast
+/-
esc
set tempo
stop
Contributor
-------------------------------------------------------------------------------
                             FEVER - Adam Lambert
-------------------------------------------------------------------------------
Tabbed by: ironmanben

Email: bentrooper@gmail.com

Tuning:
Synth 1 - e B G D A E
Synth 2 - e B G D A E
Synth 3 - e B G D A E
Synth 4 - e B G D A D
Guitar - e B G D A E

intro:
(synth arr. for guitar)
e|-------------------|
B|-------------------|
G|-7-7-7-7-7-7-------|
D|-5-5-5-5-5-5-7-8-7-|
A|-------------5-6-5-|
E|-------------------|
-|(guitar)           |
e|-------------------|
B|-------------------|
G|-------------------|
D|-------------------|
A|-------------------|
E|-3-----------------|


verse:
 | x4                | x1                              | x2                |
 |(synth arr. for guitar)                              |                   |
e|-------------------|---------------------------------|-------------------|
B|-------------------|---------------------------------|-------------------|
G|-7-7-7-7-7-7-------|---------------------------------|-7-7-7-7-7-7-------|
D|-5-5-5-5-5-5-7-8-7-|-----------------5-5-5-5-5-5-5-5-|-5-5-5-5-5-5-7-8-7-|
A|-------------5-6-5-|-3-3-3-3-3-3-3-3-3-3-3-3-3-3-3-3-|-------------5-6-5-|
E|-------------------|-1-1-1-1-1-1-1-1-----------------|-------------------|
-|(synth 2 arr. for guitar)                            |                   |
e|-------------------|-5-----5------3--3-----3-----3---|-3-----3-----3-----|
B|-------------------|-------------------1-----1-------|---1-----1---------|
G|-------------------|---5------5----------0-----0-----|-----0-----0-------|
D|-------------------|-----7------7--------------------|-------------------|
A|-------------------|---------------------------------|-------------------|
E|-------------------|---------------------------------|-------------------|
-|(guitar)           |                                 |                   |
e|-------------------|---------------------------------|-------------------|
B|-------------------|---------------------------------|-------------------|
G|-------------------|---------------------------------|-------------------|
D|-------------------|---------------------------------|-------------------|
A|-------------------|-----------------3---------------|-------------------|
E|-3-----------------|-1-------------------------------|-1h3---------------|

chorus:
 (synth arr. for guitar)
e|------------------------------------------------------------------|
B|------------------------------------------------------------------|
G|------------------------------------------------------------------|
D|-------------------------------------------------5555555555555555-|
A|---------------------------------3333333333333333-----------------|
E|-33333333333333331111111111111111---------------------------------|
-|(synth 2 arr. for guitar)                                         |
e|------------------------------------------------------------------|
B|-----------------------------------------------6-6/8-8-8-8-8-8-8--|
G|---------------------------------5-5-5-5-5-5-5-5-5/7-7-7-7-7-7-7--|
D|-5-5-5-5-5-5-5-5-3-3-3-3-3-3-3-3-5-5-5-5-5-5-5-3-3/5-5-5-5-5-5-5--|
A|-5-5-5-5-5-5-5-5-3-3-3-3-3-3-3-3-3-3-3-3-3-3-3--------------------|
E|-3-3-3-3-3-3-3-3-1-1-1-1-1-1-1-1----------------------------------|
-|(synth 3 arr. for guitar)                                         |
e|----------------------------------7---7---7-----------------------|
B|--7---7---7---7---5---5---5---5---x---x---x-----5-7---7---7---7---|
G|--x---x---x---x---x---x---x---x---5---5---5-----x-x---x---x---x---|
D|--5---5---5---5---3---3---3---3-----------------3-5---5---5---5---|
A|------------------------------------------------------------------|
E|------------------------------------------------------------------|
-|(guitar)                                                          |
e|------------------------------------------------------------------|
B|------------------------------------------------------------------|
G|--------------------------------5---------------------------------|
D|-5-5-5-5-----5-5-----3-3----3-3-5---------------------------------|
A|-5-5----------------------------3---------------8-8h10------------|
E|-3-3-----3-3-----1-1-----1-1--------------------------------------|


bridge:
 (synth 4 arr. for guitar)
e|---------------------------------------------------------------------------|
B|---------------------------------------------------------------------------|
G|---------------------------------------------------------------------------|
D|---------------------------------------------------------------------------|
A|---------------------------------3----------------------(3)----------------|
D|-0-------(0)-----------------------------------------------------2-2-2-2-2-|
-| (guitar)
e|-2---------------------------------------------------------------0---------|
B|-3-------------------------------1-------------------------------0---------|
G|-2-------------------------------0-------------------------------0---------|
D|-0-0-0-0-0-0-0-0-0-0-0-0-0-0-0-0-2-------------------------------2---------|
A|---------------------------------3-3-3-3-3-3-3-3-3-3-3-3-3-3-3-3-2---------|
E|-----------------------------------------------------------------0-0-0-0-0-|

                                   | bridge part 2:              |
e|---------------------------------|-3-----3-----3-3-----3-----3-|
B|---------------------------------|---1-----1-------1-----1-----|
G|---------------------------------|-----0-----0-------0-----0---|
D|------------10-10-10-10----------|-----------------------------|
A|---------------------------------|-----------------------------|
E|-2-2-2-2-2-2--2--2--2--0---------|-----------------------------|
-|                                 |                             |
e|-----------------------2-5-10-10-|-3---------------------------|
B|-----------------------3-5-10-10-|-3------------1--------------|
G|-----------------------2---------|-4------------0--------------|
D|-----------------------0---------|-5------------2--------------|
A|---------------------------------|-5------------3--------------|
E|-0-0-0-0-0-0-0-0-0-0-0-----------|-3---------------------------|

Order:
intro x4
verse x2
chorus x2
verse x2
chorus x2
bridge
bridge part 2 x2
chorus x4
bridge part 2 x4

| /  slide up
| \  slide down
| h  hammer-on
| p  pull-off
| ~  vibrato
| +  harmonic
| x  Mute note
===============================================================================
comments
print report bad tab
I want to post or [tab]
guest
You may want to rate the tab now too:
select rating
Please do not post tabs as comments. Select "correction" instead!