Oops, an error
Loading. Please wait.

Ghost Town Tab

version 1
version 1

Intro

Interactive

43 views 30 this week
no commentswrite comment
1 2 3 4 5
3 more votes to show rating
add to favorites
launch autoscroll
font size
0
reset
how to read this tab
guitar tuner
Autoscroll
slow
fast
+/-
esc
set tempo
stop
Help us to improve Ultimate-Guitar.com Take our survey!
×
Author
Difficulty
Capo
novice
1st fret
I prefer the tuning to be a 1/2 step
                  down but it really depends on whether you want it to be dropped down a tad or not.

              
[Intro]

      C                   Em                    G                  Am
e|--------------------|--------------------|-------------------|-------------------|
B|--1---1--1--1--1----|--------------------|-------------------|--1---1--1---------|
G|--------------------|--------------------|-------------------|--2---2--2---------|
D|--2---2--2--2--2----|--2---2--2--2--2----|-------------------|--2---2--2---------|
A|--3---3--3--3--3----|--2---2--2--2--2----|--2---2--2--2--2---|-------------------|
E|--------------------|--------------------|--3---3--3--3--3---|-------------------|


Died last night in my dreams, walking the streets of some old ghost town.


       C                   Em                    G                  Am
e|--------------------|--------------------|-------------------|-------------------|
B|--1---1--1--1--1----|--------------------|-------------------|--1---1--1---------|
G|--------------------|--------------------|-------------------|--2---2--2---------|
D|--2---2--2--2--2----|--2---2--2--2--2----|-------------------|--2---2--2---------|
A|--3---3--3--3--3----|--2---2--2--2--2----|--2---2--2--2--2---|-------------------|
E|--------------------|--------------------|--3---3--3--3--3---|-------------------|   


      C                   Em                    G                  Am
e|--------------------|--------------------|-------------------|-------------------|
B|--1---1--1--1--1----|--------------------|-------------------|--1---1--1---------|
G|--------------------|--------------------|-------------------|--2---2--2---------|
D|--2---2--2--2--2----|--2---2--2--2--2----|-------------------|--2---2--2---------|
A|--3---3--3--3--3----|--2---2--2--2--2----|--2---2--2--2--2---|-------------------|
E|--------------------|--------------------|--3---3--3--3--3---|-------------------|

                       
                       ...lock up the gates, I could not answer

         C                   Em                    G                  Am
e|--------------------|--------------------|-------------------|-------------------|
B|--1---1--1--1--1----|--------------------|-------------------|--1---1--1---------|
G|--------------------|--------------------|-------------------|--2---2--2---------|
D|--2---2--2--2--2----|--2---2--2--2--2----|-------------------|--2---2--2---------|
A|--3---3--3--3--3----|--2---2--2--2--2----|--2---2--2--2--2---|-------------------|
E|--------------------|--------------------|--3---3--3--3--3---|-------------------| 


                          called out your name, but there was no answer
                      
         C                   Em                     G                  Am
e|--------------------|--------------------|-------------------|-------------------|
B|--1---1--1--1--1----|--------------------|-------------------|--1---1--1---------|
G|--------------------|--------------------|-------------------|--2---2--2---------|
D|--2---2--2--2--2----|--2---2--2--2--2----|-------------------|--2---2--2---------|
A|--3---3--3--3--3----|--2---2--2--2--2----|--2---2--2--2--2---|-------------------|
E|--------------------|--------------------|--3---3--3--3--3---|-------------------|                      
  

...and now I know my heart is a ghost town

e|-----------------------|----------------------|---------------------|------------------|
B|-----------------------|----------------------|---------------------|------------------|
G|-----------------------|----------------------|---------------------|------------------|
D|--3--3--3--2--2--------|------0--2---3--3--3--|-2---3--3--3--3--2---|------------------|
A|-----------------0--3--|-3--3-----------------|---------------------|--3--0------------|
E|-----------------------|----------------------|---------------------|------------------|
Suggest correction
Give kudos to tab author, rate the tab!
1 2 3 4 5
comments
print report bad tab
guest
You may want to rate the tab now too:
select rating
Wanna post a correction for this tab? Suggest correction