Oops, an error
Loading. Please wait.

If I Had You tab

version 1
version 1

Whole song

Interactive

349 views 6 this week
1 commentread comment
1 2 3 4 5
x 4
add to favorites
×
Save as Personal and add changes to this tab that will be seen only by you. Learn more ›
×
You can save this tab as Personal to edit and correct it or add notes. All changes will be seen only by you. Learn more »
launch autoscroll
font size
0
reset
how to read this tab
guitar tuner
edit
Autoscroll
slow
fast
+/-
esc
set tempo
stop
For some reason, I couldn't help but tab out an Adam Lambert song...well, I guess it was the synth and the
guitar that got me. Enjoy

Intro: e|----------------------------------|
       B|----------------------------------|
       G|-----------------4-4-4-497-7-7779-|
       D|-2-2-2-245-5-55574-4-4-497-7-7779-|
       A|-2-2-2-245-5-55572-2-2-275-5-5557-|
       E|-0-0-0-023-3-3335-----------------|

Verse: e|----------------------------------|
       B|----------------------------------|
       G|-----------------4-4-4-497-7-7779-| X2
       D|-2-2-2-245-5-55574-4-4-497-7-7779-|
       A|-2-2-2-245-5-55572-2-2-275-5-5557-|
       E|-0-0-0-023-3-3335-----------------|

          So I got my boots on, got the right amount of leather

          And I'm doing me up with a black colored liner.

          And I'm working my strut, but I know it don't matter

          All we need in this world is some love

Pre-Chorus: e|----------------------------------|
            B|----------------------------------|
            G|-----------------4-4-4-497-7-7779-| X2
            D|-2-2-2-245-5-55574-4-4-497-7-7779-|
            A|-2-2-2-245-5-55572-2-2-275-5-5557-|
            E|-0-0-0-023-3-3335-----------------|

               There's a thin line between the dark side and the light side. Baby, tonight

               It's a struggle gotta rumble, tryin'a find it

Chorus: e|-------------------------------------|
        B|-------------------------------------|
        G|-5-5-5555-9-9-9999-7-7-7777-7-7------| X4
        D|-5-5-5555-9-9-9999-7-7-7777-7-7-9999-|
        A|-3-3-3333-7-7-7777-5-5-5555-5-5-9999-|
        E|--------------------------------7777-|

           But if I had you (you), that would be the only thing I'd ever need (need)

           Yeah, if I had you (you), then money, fame and fortune never could compete (compete)

           If I had you (you), life would be a party. It'd be ecstasy (stasy)

           Yeah, if I had you (You y-y-y-y-you y-y-y-y-y-you y-y-y-y-y-you)...if I had you

Pre-Verse: e|----------------------------------|
           B|----------------------------------|
           G|-----------------4-4-4-497-7-7779-|
           D|-2-2-2-245-5-55574-4-4-497-7-7779-|
           A|-2-2-2-245-5-55572-2-2-275-5-5557-|
           E|-0-0-0-023-3-3335-----------------|

Verse: e|----------------------------------|
       B|----------------------------------|
       G|-----------------4-4-4-497-7-7779-| X2
       D|-2-2-2-245-5-55574-4-4-497-7-7779-|
       A|-2-2-2-245-5-55572-2-2-275-5-5557-|
       E|-0-0-0-023-3-3335-----------------|

          From New York to LA, getting high rock and rolling

          Get a room, trash it up 'til it's ten in the morning.

          Girls in stripper heels, boys rolling in Maserati's

          What they need in this world is some love.

Pre-Chorus: e|----------------------------------|
            B|----------------------------------|
            G|-----------------4-4-4-497-7-7779-| X2
            D|-2-2-2-245-5-55574-4-4-497-7-7779-|
            A|-2-2-2-245-5-55572-2-2-275-5-5557-|
            E|-0-0-0-023-3-3335-----------------|

               There's a thin line between the wild time and a flat-line. Baby, tonight

               It's a struggle gotta rumble, tryin'a find it

Chorus: e|-------------------------------------|
        B|-------------------------------------|
        G|-5-5-5555-9-9-9999-7-7-7777-7-7------| X4
        D|-5-5-5555-9-9-9999-7-7-7777-7-7-9999-|
        A|-3-3-3333-7-7-7777-5-5-5555-5-5-9999-|
        E|--------------------------------7777-|

           But if I had you (you), that would be the only thing I'd ever need (need)

           Yeah, if I had you (you), then money, fame and fortune never could compete (compete)

           If I had you (you), life would be a party. It'd be ecstasy (stasy)

           Yeah, if I had you (You y-y-y-y-you y-y-y-y-y-you y-y-y-y-y-you) if I had

Bridge: e|------------------------------------------------|
        B|------------------------------------------------|
        G|-77-99-55~-77-99-55~-77-99-55~-7~-9~-5---5---5~-|
        D|-77-99-55~-77-99-55~-77-99-55~-7~-9~-5--5-5--5~-|
        A|-55-77-33~-55-77-33~-55-77-33~-5~-7~-3-3---3-3~-|
        E|------------------------------------------------|

           The flashing of the lights

           It might feel so good

           But I got you stuck on my mind, yeah!

        e|------------------------------------------------------------------------|
        B|------------------------------------------------------------------------|
        G|-77-99-55~-5---5---77-99-55~-5---5---77-99-55~-5---5---7~-9~-5~-5--5----|
        D|-77-99-55~--5-5-5~-77-99-55~--5-5-5~-77-99-55~--5-5-5~-7~-9~-5~--5--5---|
        A|-55-77-33~---3-----55-77-33~---3-----55-77-33~---3-----5~-7~-3~---3--3~-|
        E|------------------------------------------------------------------------|

           The flashing and the stage

           it might get me high!

           But it don't mean a thing tonight

Chorus:    |--------------P.M.---------------|
        e|-------------------------------------|
        B|-------------------------------------|
        G|-5-5-5555-9-9-9999-7-7-7777-7-7------| X2
        D|-5-5-5555-9-9-9999-7-7-7777-7-7-9999-|
        A|-3-3-3333-7-7-7777-5-5-5555-5-5-9999-|
        E|--------------------------------7777-|

           That would be the only thing I'd ever need

           Yeah, if I had you, the money, fame and fortune never could compete

        e|-------------------------------------|
        B|-------------------------------------|
        G|-5-5-5555-9-9-9999-7-7-7777-7-7------| X2
        D|-5-5-5555-9-9-9999-7-7-7777-7-7-9999-|
        A|-3-3-3333-7-7-7777-5-5-5555-5-5-9999-|
        E|--------------------------------7777-|

           If I had you (you), life would be a party. It'd be ecstasy (stasy)

           Yeah, if I had you (You y-y-y-y-you y-y-y-y-y-you y-y-y-y-y-you) if I had you

Outro: e|-------------------------------------|
       B|-------------------------------------|
       G|-5-5-5555-9-9-9999-7-7-7777-7-7------| X4
       D|-5-5-5555-9-9-9999-7-7-7777-7-7-9999-|
       A|-3-3-3333-7-7-7777-5-5-5555-5-5-9999-|
       E|--------------------------------7777-|

          that would be the only thing I'd ever need (need)

          Yeah, if I had you (you), then money, fame and fortune never could compete (never could compete with)
           
          If I had you (you), life would be a party. It'd be ecstasy (stasy)

          Yeah, if I had you (You y-y-y-y-you y-y-y-y-y-you y-y-y-y-y-you)...if I had you

            
            
Suggest correction
Creating personal tab
Creating personal tab
You can edit any tab online and save it as your Personal.

You can edit, replace or remove any tab part or add personal notes – all changes will be seen only by you.

Personal tabs can be accessed anytime from any device, even offline.
Learn more »
comments
print report bad tab
1 comment total.
0 reply
the_tabber_b 10 Jan 23, 2016 05:47 PM

didn't like this contribution

guest
You may want to rate the tab now too:
select rating
Wanna post a correction for this tab? Suggest correction