Oops, an error
Loading. Please wait.

Mad World Tab

2,849 views 3 this week
1 commentread comment
1 2 3 4 5
x 3
add to favorites
launch autoscroll
font size
0
reset
how to read this tab
guitar tuner
Autoscroll
slow
fast
+/-
esc
set tempo
stop
Help us to improve Ultimate-Guitar.com Take our survey!
×
Author
Difficulty
novice
                                                                     Mitchyo
                                                                   Mad World
                                                                Adam Lambert

Standard Tuning

E---4--8--3-4-1-3--|----------|-4--8-3-4-1-3--4|/6---------|
B-----------------4|-3--------|----------------|-----------|
G------------------|----------|----------------|-----------|
D------------------|----------|----------------|-----------|
A------------------|----------|----------------|-----------|
E------------------|----------|----------------|-----------|

The timing of this song is tricky, and the sound may be off.

That is it for the intro.  Please like and have fun!

Thanks, Mitchyo
Suggest correction
Give kudos to tab author, rate the tab!
1 2 3 4 5
comments
print report bad tab
1 comment total.
0 reply
misshoof 258 Aug 13, 2014 01:54 AM

The fingering is a bit weird when you have it arranged like that. I moved some of the notes so it's less work for your hands
E------8-----------|----------|----8-----------|-----------|
B---9-----8-9-6-8--|----------|-9----8-9-6-8--9|/11--------|
G-----------------8|-7--------|----------------|-----------|
D------------------|----------|----------------|-----------|
A------------------|----------|----------------|-----------|
E------------------|----------|----------------|-----------|

guest
You may want to rate the tab now too:
select rating
Wanna post a correction for this tab? Suggest correction