Oops, an error
Loading. Please wait.

Music Again Tab

1,570 views 1 this week
no commentswrite comment
1 2 3 4 5
please rate
add to favorites
launch autoscroll
font size
0
reset
how to read this tab
guitar tuner
Autoscroll
slow
fast
+/-
esc
set tempo
stop
Help us to improve Ultimate-Guitar.com Take our survey!
×
Author
Difficulty
intermediate
--------------------------------------------------------------------------------------------------
					Music Again Solo
					  Adam Lambert
				     For Your Entertainment
--------------------------------------------------------------------------------------------------

Music Again solo tab by Adam Lambert
From the album For Your Entertainment (my favorite album EVER :D)
Tabbed by: Francesca (your average neighborhood obsessed-with-Adam-Lambert teenage girl 
guitar player)

Tuning: Standard


e|--------------------------------------------------------------------------------------|
B|----------------------------------------5-6-7-8------------8/10-8--8---------8--------|
G|--------------------------------------7---------7/9-5----5-----------10-9-10---7/9-5--|
D|-------------------------------------------------------7------------------------------|
A|-------5-3-------3-5--5-3-------------------------------------------------------------|
E|-6~ 00-----0--00----------5--00-3~ ---------------------------------------------------|
      ..     .  ..             ..

e|--------5-----------------------------10^--8-7----------|
B|-------5-8p5---------------------8-10---------8---------|
G|---5--7-----7p5---8-7-5------7/9----------------7-5-4---|
D|-7-------------7--------7-5-----------------------------|
A|--------------------------------------------------------|
E|--------------------------------------------------------|

e|-------------------------13^--10h12p10----10h12p10---13^---15-15-15--17-18-19--|
B|---------------------------------------13----------13------x--x--x---x--x--x---|
G|-5h7h12T7p5p0h5h7h12T7p5-----------------------------------16-16-16--17-18-19--|
D|-------------------------------------------------------------------------------|
A|-------------------------------------------------------------------------------|
E|-------------------------------------------------------------------------------|

e|------------------------------------------18----18------22-20-21-20--------------------|
B|----------------------------------12/20------20----20---------------22-20-21-20--------|
G|--------------------------7-7/12------------------------------------------------21~ ---|
D|--------------------5------------------------------------------------------------------|
A|---------------5-----------------------------------------------------------------------|
E|-0-3~ 0-3~ -00---00----00--------------------------------------------------------------|
   .    .     ..   ..    ..


. = Palm mute
/ = Slide up
h = Hammer on
p = Pull off
T = Tap
~ = Vibrato
^ = Bend
Suggest correction new What's this?
You can suggest a correction to this tab. Community and Mods will review your correction and vote to approve or reject it.
comments
We did not receive enough feedback on this tab! Please rate:
print report bad tab
1 2 3 4 5
guest
You may want to rate the tab now too:
select rating
Please do not post tabs as comments. Select "correction" instead!