Oops, an error
Loading. Please wait.

Outlaws Of Love Ukulele Chords

429 views 3 this week
no commentswrite comment
1 2 3 4 5
please rate
add to favorites
launch autoscroll
font size
0
reset
transpose
0
reset
display chords
guitar tuner
Autoscroll
slow
fast
+/-
esc
set tempo
stop
Help us to improve Ultimate-Guitar.com Take our survey!
×
Difficulty
novice
Intro:

e:-----------|-----------|---------|---------|
B:-7--7--6h7-|-7--7--7---|---------|---------|
G:-8---------|-8---------|-8s15-15-|-8s15-15-|
D:-8---------|-8---------|---------|---------|
A:-6---------|-6---------|---------|---------|
E:-----------|-----------|-7s14----|-7s14----|

Verse 1:

e:-----------|-----------|---------|---------|
B:-7--7--6---|-7--7--6---|---------|---------|
G:-8---------|-8---------|-8s15-15-|-8s15-15-|
D:-8---------|-8---------|---------|---------|
A:-6---------|-6---------|---------|---------|
E:-----------|-----------|-7s14----|-7s14----| x 2

Pre-Chorus 1:

e:-----------|-----------|-----------|---------|
B:-6--6--4---|-7--7------|-----------|---------|
G:-----------|--------8--|-10-10-11s-|-8-------|
D:-----------|-----------|-----------|---------|
A:-4-----2---|-6-6--6----|-----------|---------|
E:-----------|--------7--|-9-----(9)s|-7-------|

Chorus 1:

e:----2----------4------|-----6-----------|
B:-------4---------6----|-------7-----7---|
G:----------------------|---------------6-|
D:---4---------6--------|---8-------------|
A:-2---------4----------|-6---------6-----|
E:----------------------|-----------------|

e:----2----------4------|-----6-------------|
B:-------4---------6----|-------7---------7-|
G:----------------------|---------------8---|
D:---4---------6--------|---8---------8-----|
A:-2---------4----------|-6---------6-------|
E:----------------------|-------------------|

e:----------------------|-------------------|
B:----4----------6------|-----7-------------|
G:--------4---------6---|-------8-----8---8-|
D:---4---------6--------|---8---------------|
A:-2---------4----------|-6---------6---6---|
E:----------------------|-------------------|

e:----------------------|
B:----4----------6------|
G:--------4---------6---|
D:---4---------6--------|
A:-2---------4----------|
E:----------------------|

e:-----------|-----------|
B:-7--7--6h7-|-7--7--6---|
G:-8---------|-8---------|
D:-8---------|-8---------|
A:-6---------|-6---------|
E:-----------|-----------|

Verse 2: same as Verse 1
Pre-chorus 2: same as Pre-chorus 1

Chorus 2:

e:----2----------4------|-----6-----------|
B:-------4---------6----|-------7-----7---|
G:----------------------|---------------6-|
D:---4---------6--------|---8-------------|
A:-2---------4----------|-6---------6-----|
E:----------------------|-----------------|

e:----2----------4------|-----6-------------|
B:-------4---------6----|-------7-----------|
G:----------------------|-------------8---8-|
D:---4---------6--------|---8---------------|
A:-2---------4----------|-6---------6---6---|
E:----------------------|-------------------|

e:-2-2-2-2-4-4-4-4----|-6-6-6-6-6-6-6-6-|
B:-4-4-4-4-6-6-6-6----|-7-7-7-7-7-7-7-7-|
G:-4-4-4-4-6-6-6-6----|-8-8-8-8-8-8-8-8-|
D:-4-4-4-4-6-6-6-6----|-8-8-8-8-8-8-8-8-|
A:-2-2-2-2-4-4-4-4----|-6-6-6-6-6-6-6-6-|
E:--------------------|-----------------|

e:----2-----------------|---------6---------|
B:-------4-------6------|-------7---7-------|
G:-----------------6----|-----8-------8-----|
D:---4---------6--------|---8-----------8---|
A:-2---------4----------|-6-----------------|
E:----------------------|-------------------|

Bridge:

e:-8--8--8--8--8--8--8--8--|-9--9--9--9--9--9--9--9--|
B:-10-10-10-10-10-10-10-10-|-11-11-11-11-11-11-11-11-|
G:-8--8--8--8--8--8--8--8--|-11-11-11-11-11-11-11-11-|
D:-10-10-10-10-10-10-10-10-|-11-11-11-11-11-11-11-11-|
A:-9--9--9--9--9--9--9--9--|-9--9--9--9--9--9--9--9--|
E:-8--8--8--8--8--8--8--8--|-------------------------|

e:-4-4-4-4-4-4-4-4-|------4---|
B:-6-6-6-6-6-6-6-6-|-----4-4--|
G:-6-6-6-6-6-6-6-6-|----4---6-|
D:-6-6-6-6-6-6-6-6-|---6------|
A:-4-4-4-4-4-4-4-4-|--6-------|
E:-----------------|-4--------|

e:-8--8--8--8--8--8--8--8--|-9--9--9--9--9--9--9--9--|
B:-10-10-10-10-10-10-10-10-|-11-11-11-11-11-11-11-11-|
G:-8--8--8--8--8--8--8--8--|-11-11-11-11-11-11-11-11-|
D:-10-10-10-10-10-10-10-10-|-11-11-11-11-11-11-11-11-|
A:-9--9--9--9--9--9--9--9--|-9--9--9--9--9--9--9--9--|
E:-8--8--8--8--8--8--8--8--|-------------------------|

e:-4-4-4-2---------|
B:-6-6-6-4---------|
G:-6-6-6-4---------|
D:-6-6-6-4---------|
A:-4-4-4-2---------|
E:-----------------|

Chorus 3:

e:----------------------|-----6---------6--|
B:-----2---------6------|-------7--------7-|
G:--------4--------6----|------------------|
D:---4---------6--------|---8---------8----|
A:-2---------4----------|-6---------6------|
E:----------------------|------------------|

e:----------------------|-----6------------|
B:-----2---------6------|-------7--------7-|
G:--------4--------6----|---------------8--|
D:---4---------6--------|---8---------8----|
A:-2---------4----------|-6---------6------|
E:----------------------|------------------|

e:----------------------|--------6-----------|
B:----4----------6------|----------7---------|
G:--------4---------6---|------------8-------|
D:---4---------6--------|-6h8-6h8------8---8-|
A:-2---------4----------|----------------6---|
E:----------------------|--------------------|

e:----2----------4------|-----6--------------|
B:-------4---------6----|-------7------------|
G:----------------------|---------8----------|
D:---4---------6--------|---8-------8---8----|
A:-2---------4----------|-6-----------6------|
E:----------------------|--------------------|

e:----------------------|-----------6------|
B:-----4---------6------|---------7---7----|
G:--------4--------6----|-----8---------8--|
D:---4---------6--------|---8---8----------|
A:-2---------4----------|-6----------------|
E:----------------------|------------------|

e:----2-----------------|-----6--------------|
B:----4----------6------|-------7------------|
G:----4------------6----|---------8----------|
D:---4--4-------6-------|---8-------8---8----|
A:-2---------4----------|-6-----------6------|
E:----------------------|--------------------|

e:---------------------|---------6----------|
B:-----2------4--------|-------7------------|
G:----4-----6----------|-----8--------------|
D:---4----6------------|---8----------------|
A:-2-----4-------------|-6------------------|
E:---------------------|--------------------|

After the pause:

e:---------6----------|
B:-------7------------|
G:-----8--------------|
D:---8----------------|
A:-6------------------|
E:--------------------|

(note: Monte Pittman improvised most of the little differences in the repeats, so feel 
free to experiment with picking different notes on the arpeggios, using doublestops, 
slides, dynamic etc.)
Suggest correction
Give kudos to tab author, rate the tab!
1 2 3 4 5
comments
print report bad tab
guest
You may want to rate the tab now too:
select rating
Wanna post a correction for this tab? Suggest correction