Oops, an error
Loading. Please wait.

Strut Tab

version 3
version 3

Whole song

Interactive

141 views 1 this week
no commentswrite comment
1 2 3 4 5
please rate
add to favorites
launch autoscroll
font size
0
reset
how to read this tab
guitar tuner
Tab Pro tools
  • play this tab
  • loop segment
  • change instrument
  • show fretboard
  • metronome
×
Best way to learn
"Strut"
Autoscroll
slow
fast
+/-
esc
set tempo
stop
Contributor
PLEASE NOTICE!
Actually I put an effort in writing down the vocals that you can hear played by the 
tenor sax. Sometimes this sounded a bit weird and so I decided to mix it up with solos for 
the bass and the overdriven guitar that is used in this song.
I enjoy this track more if I'm sitting together with my friend: one of us plays the 
vocals mixed with the guitar solos and the other one repeats the bass lines during the whole 
song (except from the bridge where no bass is used!)
However: choose what you wanna play and have fun!

Intro:
e: ------------|------------|------------|------------|
B: ------------|------------|------------|------------|
G: ------------|------------|------------|------------|
D: ------------|------------|------------|------------|
A: ------------|------------|------------|------------|
E: -7-7-10-10--|-0-0-2-3-2-3|-7-7-10-10--|-0-0-2-3-2-3|


Verse 1:

e: ------------|------------|------------|------------|
B: --1--1--1---|-1----------|--1--1--1---|-1----------|
G: -2--2--2--2-|---0--------|-2--2--2--2-|---0--------|
D: ------------|------------|------------|------------|
A: ------------|------------|------------|------------|
E: ------------|------------|------------|------------|

e: --0-0-------|------------|------------|------------|
B: ------3-3-1-|-3-3--------|--1--1--1---|-1----------|
G: -2---------2|------------|-2--2--2--2-|---0--------|
D: ------------|------------|------------|------------|
A: ------------|------------|------------|------------|
E: ------------|------------|------------|------------|


Pre-chorus 1:

e: -----0-0-0--|------------|-0--0--0----|------------|
B: ----------3-|---1-1-1----|----------3-|---1-1-1----|
G: -2-2--------|-2--------2-|------------|-2--------2-|
D: ------------|------------|------------|------------|
A: ------------|------------|------------|------------|
E: ------------|------------|------------|------------|


e: -3-3-3-1-0-1|-0--0--0----|------------|-0--0--0----|
B: -5-5-5-3-1-3|----------3-|---1-1-1----|----------3-|
G: ------------|------------|-2--------2-|------------|
D: ------------|------------|------------|------------|
A: ------------|------------|------------|------------|
E: ------------|------------|------------|------------|



e: ------------|-3-3-3-1-0-1|
B: ---1-1-1----|-5-5-5-3-1-3|
G: -2--------2-|------------|
D: ------------|------------|
A: ------------|------------|
E: ------------|------------|


Chorus 1:

e: ---0-3-3-0--|-12--12--12-|---0--------|-12--12--12-|
B: -3-1-5-5-1--|-10--10--10-|-3---3-1----|-10--10--10-|
G: -2----------|------------|-2--------2-|------------|
D: ------------|------------|------------|------------|
A: ------------|------------|------------|------------|
E: ------------|------------|------------|------------|

e: ---0------5-|------------|------------|-----8-8-5--|
B: -3---3--1---|------------|-1--1-1--1--|-3-3-8-8-5--|
G: ----------2-|-2--2-2--2--|------------|------------|
D: ------------|------------|------------|------------|
A: ------------|------------|------------|------------|
E: ------------|------------|------------|------------|


e: ------------|------------|-----8-8-5-8|-5-8-5------|
B: ------------|-1--1-1--1--|-3-3-8-8-5-8|-5-8-5------|
G: -2--2-2--2--|------------|------------|---------2--|
D: ------------|------------|------------|------------|
A: ------------|------------|------------|------------|
E: ------------|------------|------------|------------|


e: -------8-5-8|-5-8-5------|------------|
B: -----1-8-5-8|-5-8-5------|-------1-1--|
G: -2-2--------|------------|-2-2-2-----2|
D: ------------|------------|------------|
A: ------------|------------|------------|
E: ------------|------------|------------|


Solo 1 (decide whether bass(=Intro) or guitar:)

e: ------------|------------|------------|------------|
B: ------------|------------|------------|------------|
G: ------------|------------|------------|------------|
D: ------------|------------|------------|------------|
A: -14-15-14-15|-14-15-14-15|-14-15-14-15|-14-15-14-15|
E: ------------|------------|------------|------------|


e: ------------|------------|------------|------------|
B: ------------|------------|------------|------------|
G: ------------|------------|------------|------------|
D: -------12---|------------|------------|------------|
A: -14-15-15---|-14-15-14-15|-14-15-14-15|-14-15-14-15|
E: ------------|------------|------------|------------|


e: ------------|------------|
B: ------------|------------|
G: ------------|------------|
D: ------------|-------12---|
A: -14-15-14-15|-14-15-15---|
E: ------------|------------|


Verse 2:

e: ------------|------------|------------|------------|
B: --1--1--1---|-1----------|--1--1--1---|-1----------|
G: -2--2--2--2-|---0--------|-2--2--2--2-|---0--------|
D: ------------|------------|------------|------------|
A: ------------|------------|------------|------------|
E: ------------|------------|------------|------------|

e: --0-3-5-3-0-|------------|------------|------------|
B: ------------|-3-3--------|--1--1--1---|-1----------|
G: -2---------2|------------|-2--2--2--2-|----0-------|
D: ------------|------------|------------|------------|
A: ------------|------------|------------|------------|
E: ------------|------------|------------|------------|


Pre-chorus 2: same as Pre-chorus 1
Chorus 2: same as Chorus 1
Solo 2: same as Solo 1

Bridge (no bass):

e: --1-----3---|--1---0---0-|-1--0-------|------1-----|
B: ------------|------------|-------3--1-|------------|
G: ------------|------------|------------|--2---------|
D: ------------|------------|------------|------------|
A: ------------|------------|------------|------------|
E: ------------|------------|------------|------------|


e: --3--1--0--1|--0--1--0--1|--0--1--0--1|--12--12----|
B: ------------|------------|------------|--10--10----|
G: ------------|------------|------------|------------|
D: ------------|------------|------------|------------|
A: ------------|------------|------------|------------|
E: ------------|------------|------------|------------|


e: ---0--------|-12--12-----|---0------5-|------------|
B: -3---3--1---|-10--10-----|-3---3--1---|------------|
G: ----------2-|------------|----------2-|-2--2--2--2-|
D: ------------|------------|------------|------------|
A: ------------|------------|------------|------------|
E: ------------|------------|------------|------------|


e: ------------|-----8-8-5--|------------|------------|
B: -1--1--1--1-|-3-3-8-8-5--|------------|-1--1--1--1-|
G: ------------|------------|-2--2--2--2-|------------|
D: ------------|------------|------------|------------|
A: ------------|------------|------------|------------|
E: ------------|------------|------------|------------|


e: -----8-8-5-8|-5--8--5----|-------8-5-8|-5--8--5----|
B: -3-3-8-8-5-8|-5--8--5----|-----1-8-5-8|-5--8--5----|
G: ------------|----------2-|-2-2--------|----------2-|
D: ------------|------------|------------|------------|
A: ------------|------------|------------|------------|
E: ------------|------------|------------|------------|


e: ------------|
B: -----1-1----|
G: -2-2------2-|
D: ------------|
A: ------------|
E: ------------|


Coda (actually on guitar is repeated the Solo):

e: -5--3--0----|-------0----|-5--3--0----|-------0----|
B: ---------3-1|-3-1-3--3-1-|---------3-1|-3-1-3--3-1-|
G: ------------|-----------2|------------|-----------2|
D: ------------|------------|------------|------------|
A: ------------|------------|------------|------------|
E: ------------|------------|------------|------------|

(this line definitive sounds better if you play the guitar or bass Solo):

e: --5-----5---|--8-----5---|--5-----8---|----10------|
B: ------------|------------|------------|------------|
G: ------------|------------|------------|------------|
D: ------------|------------|------------|------------|
A: ------------|------------|------------|------------|
E: ------------|------------|------------|------------|


Outro (bass): same as Intro --- fade out

Outro respectively (overdriven guitar): same as Solo --- fade out
comments
We did not receive enough feedback on this tab! Please rate:
print report bad tab
1 2 3 4 5
I want to post or [tab]
guest
You may want to rate the tab now too:
select rating
Please do not post tabs as comments. Select "correction" instead!