Oops, an error
Loading. Please wait.

Time For Miracles Chords

version 3
version 3

Whole song

6,642 views 1 this week
no commentswrite comment
1 2 3 4 5
please rate
add to favorites
launch autoscroll
font size
0
reset
transpose
0
reset
simplify chords
display chords
guitar tuner
Autoscroll
slow
fast
+/-
esc
set tempo
stop
Help us to improve Ultimate-Guitar.com Take our survey!
×
Author
Capo
2nd fret
----------------------------------------------------------------------------
		             TIME FOR MIRACLES - Adam Lambert
----------------------------------------------------------------------------
Tabbed by: Tze Yeang
Email: yeang.tze@gmail.com

Tuning: Standard
Capo 2

VERSE 1
       C           Am7         G           G          
E|-----0-----|-----0-----|-----0-----|-----3-----|
B|-----1-----|-----1-----|-----1-----|-----3-----|
G|-----0-----|-----0-----|-----0-----|-----0-----|	Repeat
D|-----2-----|-----2-----|-----0-----|-----0-----|	 2x
A|-----3-----|-----0-----|-----2-----|-----2-----|
E|-----x-----|-----x-----|-----x-----|-----3-----|
It's late at night and I can't sleep
Missing you just runs too deep
Oh I can't breathe thinking of your smile
Every kiss I can't forget
This aching heart ain't broken yet
Oh God I wish I could make you see

       Dm          G           Dm          G          
E|-----1-----|-----3-----|-----1-----|-----3-----|
B|-----3-----|-----3-----|-----3-----|-----3-----|
G|-----2-----|-----0-----|-----2-----|-----0-----|
D|-----0-----|-----0-----|-----0-----|-----0-----|
A|-----x-----|-----2-----|-----x-----|-----2-----|
E|-----x-----|-----3-----|-----x-----|-----3-----|
Cuz I know this flame isn't dying
So nothing can stop me from trying


CHORUS
       C           G          Am7          F              C           F
E|-----0-----|-----0-----|-----0-----|-----0-----|  |-----0-----|-----0-----|
B|-----1-----|-----1-----|-----1-----|-----1-----|  |-----1-----|-----1-----|
G|-----0-----|-----0-----|-----0-----|-----0-----|  |-----0-----|-----0-----|
D|-----2-----|-----0-----|-----2-----|-----0-----|2x|-----2-----|-----0-----|
A|-----3-----|-----2-----|-----0-----|-----0-----|  |-----3-----|-----0-----|
E|-----x-----|-----x-----|-----x-----|-----1-----|  |-----0-----|-----1-----|
Baby you know that
Maybe it's time for miracles
Cuz I ain't giving up on love
You know that
Maybe it's time for miracles
Cuz I ain't giving up on love
No I ain't giving up on us


VERSE 2
       C           Am7         G           G          
E|-----0-----|-----0-----|-----0-----|-----3-----|
B|-----1-----|-----1-----|-----1-----|-----3-----|
G|-----0-----|-----0-----|-----0-----|-----0-----|	Repeat
D|-----2-----|-----2-----|-----0-----|-----0-----|	 2x
A|-----3-----|-----0-----|-----2-----|-----2-----|
E|-----x-----|-----x-----|-----x-----|-----3-----|
I just wanna be with you
Cuz living is so hard to do
When all I know is trapped inside your eyes
The future I cannot forget
This aching heart ain't broken yet
Oh God I wish I could make you see

       Dm          G           Dm          G          
E|-----1-----|-----3-----|-----1-----|-----3-----|
B|-----3-----|-----3-----|-----3-----|-----3-----|
G|-----2-----|-----0-----|-----2-----|-----0-----|
D|-----0-----|-----0-----|-----0-----|-----0-----|
A|-----x-----|-----2-----|-----x-----|-----2-----|
E|-----x-----|-----3-----|-----x-----|-----3-----|
Cuz I know this flame isn't dying
So nothing can stop me from trying


CHORUS
       C           G          Am7          F              C           F
E|-----0-----|-----0-----|-----0-----|-----0-----|  |-----0-----|-----0-----|
B|-----1-----|-----1-----|-----1-----|-----1-----|  |-----1-----|-----1-----|
G|-----0-----|-----0-----|-----0-----|-----0-----|  |-----0-----|-----0-----|
D|-----2-----|-----0-----|-----2-----|-----0-----|2x|-----2-----|-----0-----|
A|-----3-----|-----2-----|-----0-----|-----0-----|  |-----3-----|-----0-----|
E|-----x-----|-----x-----|-----x-----|-----1-----|  |-----0-----|-----1-----|
Baby you know that
Maybe it's time for miracles
Cuz I ain't giving up on love
You know that
Maybe it's time for miracles
Cuz I ain't giving up on love
No I ain't giving up on us

       D          C#m          G
E|-----2-----|-----4-----|-----3-----|
B|-----3-----|-----5-----|-----3-----|
G|-----2-----|-----6-----|-----0-----|	  Repeat
D|-----0-----|-----6-----|-----0-----|	   3x
A|-----x-----|-----4-----|-----2-----|
E|-----x-----|-----x-----|-----3-----|
Baby can you feel it coming
You know I can hear it (hear it)
So can you feel me feel you....

       C
E|-----0-----|
B|-----1-----|
G|-----0-----|
D|-----2-----|
A|-----3-----|
E|-----x-----|
You know it's time

       D          F#m         Bm           G
E|-----2-----|-----2-----|-----2-----|-----3-----|
B|-----3-----|-----2-----|-----3-----|-----3-----|
G|-----2-----|-----2-----|-----4-----|-----0-----|	Repeat
D|-----0-----|-----4-----|-----4-----|-----0-----|	 2x
A|-----x-----|-----4-----|-----2-----|-----2-----|
E|-----x-----|-----2-----|-----x-----|-----3-----|
Baby you know that
Maybe it's time for miracles
Cuz I ain't giving up on love
You know that
Maybe it's time for miracles
Cuz I ain't giving up on love

       D          F#m         Bm
E|-----2-----|-----2-----|-----2-----|
B|-----3-----|-----2-----|-----3-----|
G|-----2-----|-----2-----|-----4-----|
D|-----0-----|-----4-----|-----4-----|
A|-----x-----|-----4-----|-----2-----|
E|-----x-----|-----2-----|-----x-----|
You know Maybe it's time for miracles

       C           G           D
E|-----3-----|-----3-----|-----2-----|
B|-----5-----|-----3-----|-----3-----|
G|-----5-----|-----4-----|-----2-----|	  Repeat
D|-----5-----|-----6-----|-----0-----|	   2x
A|-----3-----|-----6-----|-----x-----|
E|-----x-----|-----3-----|-----x-----|
Cuz I ain't giving up on love
No I ain't giving up on love

       C           G
E|-----3-----|-----3-----|
B|-----5-----|-----3-----|
G|-----5-----|-----4-----|
D|-----5-----|-----6-----|
A|-----3-----|-----6-----|
E|-----x-----|-----3-----|
Yeah given up

      Gm           D
E|-----3-----|-----2-----|
B|-----3-----|-----3-----|
G|-----3-----|-----2-----|
D|-----6-----|-----0-----|
A|-----6-----|-----x-----|
E|-----3-----|-----x-----|
Oh I ain't giving up on us


Enjoy =)

Suggest correction
What's this?
You can suggest a correction to this tab. Community and Mods will review your correction and vote to approve or reject it.
comments
We did not receive enough feedback on this tab! Please rate:
print report bad tab
1 2 3 4 5
guest
You may want to rate the tab now too:
select rating
Please do not post tabs as comments. Select "correction" instead!