Oops, an error
Loading. Please wait.

Trespassing Bass Tab

5,973 views 9 this week
no commentswrite comment
1 2 3 4 5
x 4
add to favorites
launch autoscroll
font size
0
reset
guitar tuner
Autoscroll
slow
fast
+/-
esc
set tempo
stop
Help us to improve Ultimate-Guitar.com Take our survey!
×
G||--------------------------|
D||--------5--5--------------|
A||--7--7-------5--5--5-5----|
E||--------------------------|

G||----------------------------|
D||--------4--4----------------|
A||--5--5-------7--7--7-7----5-|
E||------------------------7---|

G||--------------------------|
D||--------5--5--------------|
A||--7--7-------5--5--5-5----|
E||--------------------------|

G||---------------------------||
D||--------4--4---------------||
A||--5--5-------7--7--7----5--||
E||---------------------7-----||
Suggest correction
comments
print report bad tab
guest
You may want to rate the tab now too:
select rating
Wanna post a correction for this tab? Suggest correction