Oops, an error
Loading. Please wait.

Want Tab

460 views 1 this week
no commentswrite comment
1 2 3 4 5
3 more votes to show rating
add to favorites
launch autoscroll
font size
0
reset
how to read this tab
guitar tuner
Autoscroll
slow
fast
+/-
esc
set tempo
stop
Help us to improve Ultimate-Guitar.com Take our survey!
×
There's one part in this song where I put what fret I think that you
should play the chord on.  I just think it sounds better but if you
do play it that way remember that the fingering is different.
Whatever's easier for ya though


Verse:
G
November
            Em
Not much to remember
B               C
You were not in sight
G
December
              Em
Change of the weather
B              C
You were by my side


Chorus:
G
Love
             Bm
It's what we want
C
Love
G
Love
             Bm
It's all we need
B fret 7            C fret 8
It's all we really want


G
No matter
          Em
Where the day goes
B                 C
I know your close by
G
Changes
       Em
In the seasons
B                  C
It's just what's required


G
Love
            Bm
It's all we want
C
Love
G
Love
             B,
It's all we need
B fret 7                C fret 8
It's all that we really want

Solo:
|--------------------------------------------------|
|--------------------------------------------------|
|-15-15-12---12/16--15-17-16--12---12/16--15-17-16-|
|--------------------------------------------------|
|--------------------------------------------------|
|--------------------------------------------------|

|-------------------------------------------------|
|-16s------------------------------10-12-13-12----|
|----16s------------------------------------------|
|--------16-16--14-12-14--16-14-------------------|
|-------------------------------------------------|
|-------------------------------------------------|

|-18-17b--18-17--15-14s---18-17-15-14-15----------|
|----------------------------------------16-------|
|-------------------------------------------15----|
|-------------------------------------------------|
|-------------------------------------------------|
|-------------------------------------------------|

|-------------------------------------------------|
|--12-12b--10--8--7-7777777-----------------------|
|-------------------------------------------------|
|-------------------------------------------------|
|-------------------------------------------------|
|-------------------------------------------------|


G
Love
             Bm
It's what we want
C
Love
G
Love
            Bm
It's all we need
B fret 7                C fret 8
It's all that we really want
Cm
Yeah
G
Love, love, love
     Bm
It's what we want
B fret 7            c fret 8
It's what we really need
G
Love, love, love, love
Em
It's what we want
     Bm
It's what we want
B fret 7            C fret 8
it's what we really need
Cm
Yeah, yeah
G
Love
             Bm
It's what we want
B fret 7            C fret 8(single strum)
It's what we really want
Cm (single strum)
Yeah, hey, yeah
G (single strum)
Love
Suggest correction
Give kudos to tab author, rate the tab!
1 2 3 4 5
comments
print report bad tab
guest
You may want to rate the tab now too:
select rating
Wanna post a correction for this tab? Suggest correction