Oops, an error
Loading. Please wait.

Whataya Want From Me Acoustic Tab

version 1
version 1

Intro

Whole song

4,477 views 6 this week
no commentswrite comment
1 2 3 4 5
accurate
x 1
add to favorites
launch autoscroll
font size
0
reset
how to read this tab
guitar tuner
Tab Pro tools
  • play this tab
  • loop segment
  • change instrument
  • show fretboard
  • metronome
Autoscroll
slow
fast
+/-
esc
set tempo
stop
Difficulty
intermediate

            Adam Lambert - Whataya Want From Me 

I have gathered information from around the planet and this his how I play it 
myself! Very good song!



INTRO:


    Hey              Slow      Down
e|--8-------------------8--x-|---7-----------------------|
B|--x-------------------x--x-|---x-----------------------|
G|--x-------------------x--x-|---x-----------------------|
D|--7-------------------7--x-|---5-----------------------|
A|---------------------------|---------------------------|
E|---------------------------|---------------------------|
 
                
  Whataya  Want  From  Me     Whataya  Want  From  Me         
e|-12-12-12--12----x----5----|-12-12-12--12----x----5----|
B|--x--x--x---x----x----x----|--x--x--x---x----x----x----|
G|--x--x--x---x----x----x----|--x--x--x---x----x----x----|
D|-10-10-10--10----x----3----|-10-10-10--10----x----3----|           
A|---------------------------|---------------------------|
E|---------------------------|---------------------------|
                                               _____________________________
Verse:                                        |     
                                              |        CHORDS:
G                                             |
                                              |     Am:   002210 
Am       G                                    |     C/G:  332010
                                              |     F:    133211
C/G  F   C/G  F                               |     C:    032010
                                              |     G:    320033
  (Repeat several times)                      |____________________________



Chorus:

(G)   <-- only play once

F    G

Am   C

  (Repeat several times, exept the first "G")

Solo: 

e|---------------------------------------|
B|-12---10-12----------------------------|
G|------------11---9-11------------------|
D|-----------------------11---12-11------|   
A|----------------------------------12-9-|
E|---------------------------------------|




/KRILLETT
comments
We did not receive enough feedback on this tab! Please rate:
print report bad tab
1 2 3 4 5
I want to post or [tab]
guest
You may want to rate the tab now too:
select rating
Please do not post tabs as comments. Select "correction" instead!