Oops, an error
Loading. Please wait.

Whataya Want From Me Tab

version 5
version 5
26,688 views 1 this week
4 commentsread comments
1 2 3 4 5
excellent!
x 4
add to favorites
launch autoscroll
font size
0
reset
how to read this tab
guitar tuner
Autoscroll
slow
fast
+/-
esc
set tempo
stop
Help us to improve Ultimate-Guitar.com Take our survey!
×
Author
#----------------------------------PLEASE NOTE--------------------------------#
#This file is the author's own work and represents their interpretation of the#
#song. You may only use this file for private study, scholarship, or research.#
#-----------------------------------------------------------------------------#
#-- File created with Instab - http://www.pconline.com/~smcarey/instab.html --#
#-----------------------------------------------------------------------------#

Author/Artist: Adam Lambert
Title: Whataya Want From Me


Tuning (c# A D f# a d)


----|-12---12--11---16-16-16-16-9-9---16-16-16-16-9-9---|--|
----|-x----x---x----x--x--x--x--x-x---x--x--x--x--x-x---|--|
----|-x----x---x----x--x--x--x--x-x---x--x--x--x--x-x---|--|
----|-9----9---7----12-12-12-12-5-5---12-12-12-12-5-5---|--|
----|---------------------------------------------------|--|
----|---------------------------------------------------|--|
         

  Intro/Verse



----|---------------|
----|---------------|
----|-5-5---5-5-5-5-|
----|-5-5---5-5-5-5-|
----|---------------|
----|---------------|
         

  PreChorus



----|------------------------------------------------|
----|------------------------------------------------|
----|----5-----5-----7-----7-----5-----5-----8-----8-|
----|-5--5--5--5--7--7--7--7--4--4--4--4--7--7--7--7-|
----|-5-----5-----7-----7-----2-----2-----5-----5----|
----|-x-----x-----x-----x-----x-----x-----x-----x----|
         

  Chorus



----|--------------------------------------------------------|
----|--------------------------------------------------------|
----|-----13------13------15------15-----5-----5-----8-----8-|
----|-12--12--12--12--14--14--14--14--4--4--4--4--7--7--7--7-|
----|-10------10------12------12------2-----2-----5-----5----|
----|-x-------x-------x-------x-------x-----x-----x-----x----|
        

  "Whataya want from me"



----|-------------|--|-------------|--|
----|-------------|--|-------------|--|
----|-------------|--|-------------|--|
----|-------------|4x|-17-17-17-17-|4x|
----|-20-20-20-20-|--|-------------|--|
----|-------------|--|-------------|--|
         

 Verse 2 Vibrate Throughout

Suggest correction
What's this?
You can suggest a correction to this tab. Community and Mods will review your correction and vote to approve or reject it.
comments
print report bad tab
4 comments total. Showing first comments.
+1 reply
flawedperfectly 15 wrote on May 29 2010, 11:28 am

how do u mute more than one string? great tab btw. can't pluck cos it sounds strummed on the disc (:

0 reply
chronic_stp 877 wrote on August 7 2010, 10:34 pm

"how do you pluck more than one string"? 0_o i have never typed that face before but i felt it was appropriate. anyway good job on the tab

0 reply
chronic_stp 877 wrote on August 7 2010, 10:35 pm

i meant to say mute more than one string^

guest
You may want to rate the tab now too:
select rating
Please do not post tabs as comments. Select "correction" instead!