Oops, an error
Loading. Please wait.

Locked Away solo tab

version 1
version 1

Solo

Interactive

26,450 views 39 this week
5 commentsread comments
1 2 3 4 5
x 17
add to favorites
×
Save as Personal and add changes to this tab that will be seen only by you. Learn more ›
×
You can save this tab as Personal to edit and correct it or add notes. All changes will be seen only by you. Learn more »
launch autoscroll
font size
0
reset
how to read this tab
guitar tuner
edit
Autoscroll
slow
fast
+/-
esc
set tempo
stop
-------------------------------------------------------------------------------
                             Locked Away - Adam Levine ft. R. City
-------------------------------------------------------------------------------
Tabbed by:Edeline Susanto
E-mail: edeline_susanto@yahoo.com
IG : edelinesusanto

Tuning: Standard, Capo 1 

    C                    Am                    F
   If i got locked away.....
e|--0--0--0--0--1--3--------------------0------------------------------------|
B|--1-----------------1-----1--1--1--3---------------------------------------|
G|--0-----------------------2--2--2--------2-----2--2--2--2--2---------------|
D|---------------------------------------------------------------------------|
A|--3--------------------0---------------------------------------------------|
E|---------------------------------------------1-----------------------------|
    C         G        C
   would you still live me the same.. 
e|--0--0--0------0-----0-----------------------------------------------------|
B|--1---------3-----3--1-----------------------------------------------------|
G|--0---------0--------0-----------------------------------------------------|
D|---------------------------------------------------------------------------|
A|--3------------------3-----------------------------------------------------|
E|------------3--------------------------------------------------------------|

    C                    Am                    F
    If I showed you my flaws....
e|--0--0--0--0--1--3--------------------0------------------------------------|
B|--------------------1-----1--1--1--2---------------------------------------|
G|--------------------------2--2--2--------2-----2--2--2--2--2---------------|
D|---------------------------------------------------------------------------|
A|-----------------------0---------------------------------------------------|
E|---------------------------------------------1-----------------------------|

    C         G        C
  would you still love me the same...
e|--0--0--0------0-----0-----------------------------------------------------|
B|--1---------3-----3--1-----------------------------------------------------|
G|--0---------0--------0-----------------------------------------------------|
D|---------------------------------------------------------------------------|
A|--3------------------3-----------------------------------------------------|
E|------------3--------------------------------------------------------------| 

            
            
Suggest correction
Creating personal tab
Creating personal tab
You can edit any tab online and save it as your Personal.

You can edit, replace or remove any tab part or add personal notes – all changes will be seen only by you.

Personal tabs can be accessed anytime from any device, even offline.
Learn more »
comments
print report bad tab
5 comments total. Showing first comments.
+2 reply
julialand2009 14 Sep 15, 2015 04:28 PM

In my opinion this sounds better
X-X-X-X
1-1-1-3
2-2-2-X
X-X-X-X
X-X-X-X
X-X-X-X

0 reply
kkavish17 10 Nov 29, 2015 02:14 AM

need full song tabs

0 reply
kkavish17 10 Nov 29, 2015 02:14 AM

need full song tabs

guest
You may want to rate the tab now too:
select rating
Wanna post a correction for this tab? Suggest correction