Oops, an error
Loading. Please wait.

Grow Old With You Tab

version 2
version 2
24,283 views 3 this week
no commentswrite comment
1 2 3 4 5
worth learning
x 4
add to favorites
launch autoscroll
font size
0
reset
how to read this tab
guitar tuner
Tab Pro tools
  • play this tab
  • loop segment
  • change instrument
  • show fretboard
  • metronome
×
Best way to learn
"Grow Old With You"
Autoscroll
slow
fast
+/-
esc
set tempo
stop
-------------------------------------------------------------------------------
			     Grow old with You- Adam Sandler
-------------------------------------------------------------------------------
Tabbed by:James De Los Santos
Email:

Tuning:ebgdae

Verse 1
	G	       Am	     G		   C		 G	       D	     G
e|--3-3-3-3-3-3---0-0-0-0-0-0---3-3-3-3-3-3---0-0-0-0-0-0---3-3-3-3-3-3---2-2-2-2-2-2---3-3-3-3-3-3--|
B|--0-0-0-0-0-0---1-1-1-1-1-1---0-0-0-0-0-0---1-1-1-1-1-1---0-0-0-0-0-0---3-3-3-3-3-3---0-0-0-0-0-0--|
G|--0-0-0-0-0-0---2-2-2-2-2-2---0-0-0-0-0-0---0-0-0-0-0-0---0-0-0-0-0-0---2-2-2-2-2-2---0-0-0-0-0-0--|
D|--0-0-0-0-0-0---2-2-2-2-2-2---0-0-0-0-0-0---2-2-2-2-2-2---0-0-0-0-0-0---0-0-0-0-0-0---0-0-0-0-0-0--|
A|--2-2-2-2-2-2---0-0-0-0-0-0---2-2-2-2-2-2---3-3-3-3-3-3---2-2-2-2-2-2---0-0-0-0-0-0---2-2-2-2-2-2--|
E|--3-3-3-3-3-3---0-0-0-0-0-0---3-3-3-3-3-3---0-0-0-0-0-0---3-3-3-3-3-3---0-0-0-0-0-0---3-3-3-3-3-3--|

verse 2
	G	       Am	     G		   C		 G	       D	     G
e|--3-3-3-3-3-3---0-0-0-0-0-0---3-3-3-3-3-3---0-0-0-0-0-0---3-3-3-3-3-3---2-2-2-2-2-2---3-3-3-3-3-3--|
B|--0-0-0-0-0-0---1-1-1-1-1-1---0-0-0-0-0-0---1-1-1-1-1-1---0-0-0-0-0-0---3-3-3-3-3-3---0-0-0-0-0-0--|
G|--0-0-0-0-0-0---2-2-2-2-2-2---0-0-0-0-0-0---0-0-0-0-0-0---0-0-0-0-0-0---2-2-2-2-2-2---0-0-0-0-0-0--|
D|--0-0-0-0-0-0---2-2-2-2-2-2---0-0-0-0-0-0---2-2-2-2-2-2---0-0-0-0-0-0---0-0-0-0-0-0---0-0-0-0-0-0--|
A|--2-2-2-2-2-2---0-0-0-0-0-0---2-2-2-2-2-2---3-3-3-3-3-3---2-2-2-2-2-2---0-0-0-0-0-0---2-2-2-2-2-2--|
E|--3-3-3-3-3-3---0-0-0-0-0-0---3-3-3-3-3-3---0-0-0-0-0-0---3-3-3-3-3-3---0-0-0-0-0-0---3-3-3-3-3-3--|

chorus
       Cadd9	     Cadd9          G		   G		Cadd9	      Cadd9	     G
e|--3-3-3-3-3-3---3-3-3-3-3-3---3-3-3-3-3-3---3-3-3-3-3-3---3-3-3-3-3-3---3-3-3-3-3-3---3-3-3-3-3-3---3-3-3-3-3-3--|
B|--3-3-3-3-3-3---3-3-3-3-3-3---0-0-0-0-0-0---0-0-0-0-0-0---3-3-3-3-3-3---3-3-3-3-3-3---0-0-0-0-0-0---0-0-0-0-0-0--|
G|--0-0-0-0-0-0---0-0-0-0-0-0---0-0-0-0-0-0---0-0-0-0-0-0---0-0-0-0-0-0---0-0-0-0-0-0---0-0-0-0-0-0---0-0-0-0-0-0--|
D|--2-2-2-2-2-2---2-2-2-2-2-2---0-0-0-0-0-0---0-0-0-0-0-0---2-2-2-2-2-2---2-2-2-2-2-2---0-0-0-0-0-0---0-0-0-0-0-0--|
A|--3-3-3-3-3-3---3-3-3-3-3-3---2-2-2-2-2-2---2-2-2-2-2-2---3-3-3-3-3-3---3-3-3-3-3-3---2-2-2-2-2-2---2-2-2-2-2-2--|
e|--0-0-0-0-0-0---0-0-0-0-0-0---3-3-3-3-3-3---3-3-3-3-3-3---0-0-0-0-0-0---0-0-0-0-0-0---3-3-3-3-3-3---3-3-3-3-3-3--|

solo   G Am G C G D G - same as verses

verse 3
	 G	      Am	     G		   C		 G	       D	     G
e|--3-3-3-3-3-3---0-0-0-0-0-0---3-3-3-3-3-3---0-0-0-0-0-0---3-3-3-3-3-3---2-2-2-2-2-2---3-3-3-3-3-3--|
B|--0-0-0-0-0-0---1-1-1-1-1-1---0-0-0-0-0-0---1-1-1-1-1-1---0-0-0-0-0-0---3-3-3-3-3-3---0-0-0-0-0-0--|
G|--0-0-0-0-0-0---2-2-2-2-2-2---0-0-0-0-0-0---0-0-0-0-0-0---0-0-0-0-0-0---2-2-2-2-2-2---0-0-0-0-0-0--|
D|--0-0-0-0-0-0---2-2-2-2-2-2---0-0-0-0-0-0---2-2-2-2-2-2---0-0-0-0-0-0---0-0-0-0-0-0---0-0-0-0-0-0--|
A|--2-2-2-2-2-2---0-0-0-0-0-0---2-2-2-2-2-2---3-3-3-3-3-3---2-2-2-2-2-2---0-0-0-0-0-0---2-2-2-2-2-2--|
E|--3-3-3-3-3-3---0-0-0-0-0-0---3-3-3-3-3-3---0-0-0-0-0-0---3-3-3-3-3-3---0-0-0-0-0-0---3-3-3-3-3-3--|

    C		  D		G
e|--0-------------2-------------3-------------------------------------------------|
B|--1-------------3-------------0-------------------------------------------------|
G|--0-------------2-------------0-------------------------------------------------|
D|--2-------------0-------------0-------------------------------------------------|
A|--3-------------0-------------2-------------------------------------------------|
E|--0-------------0-------------3-------------------------------------------------|

verse 1.- I  wanna  make  you  smile
	  Whenever  your  sad
	  Carry  you  around
	  When  your  arthritis  is  bad
	  All  I  wanna  do      is
	  Grow  old  with you

verse 2 - I'll  get  you  medicine
	  When  your  tummy  aches
	  Build  you  a  fire
	  When  the  furnace  breaks
	  O,It  could  be  so  nice
	  Growing  old  with  you

chorus-  I'll  miss  you    Kiss  you
	 Give  you  my  coat  when  you  are  cold
	 Need  you    Feed  you
	 I'll  even  let  you  hold  the  remote  control

Solo:G  Am  G  C  G  D  G  (play like verse)

verse 3- Let  me  do  the  dishes
	 In  our  kitchen  sink
	 Put  you  to  bed
	 When  you've  had  too  much  to drink
	 O , I  could  be  the  man
	 Who  grows  old  with  you
	I  wanna  grow  old  with  you


|
comments
print report bad tab
I want to post or [tab]
guest
You may want to rate the tab now too:
select rating
Please do not post tabs as comments. Select "correction" instead!